My Little Empire by Manic Street Preachers 

Notation:
p = pull off
^ = bend up

E----------------------------------------------------------
B-----------5p2-------------------3p2----------------------
G---------0-----5p3-3p2---------------3p2-5^---------------
D---0-2-3-------------------2-3-0--------------------------
A--0---------------------3---------------------------------
E----------------------------------------------------------

E------------------------------3--------3------3-----------
B----------------------------------------------------------
G------3-----5p3-3-2--------2------2-2-------2-------------
D----2---(2)-----------------------------------------------
A--1-------------------------------------------------------
E------------------------1---------------------------------

E----------------------------------------------------------
B-----------5p2---------------2---3p2----------------------
G---------0-----5p3-3p2---------------3p2-5^---------------
D---0-2-3-------------------2---2-------------------------
A------------------------3---------------------------------
E----------------------------------------------------------

E------------------------------3--------3------3-----------
B----------------------------------------------------------
G------3-----5p3-3-2--------2------2-2-------2-------------
D----2---(2)-----------------------------------------------
A--1-------------------------------------------------------
E------------------------1---------------------------------

Verse: Dm, C, Bb, F
Chorus: Eb, A, Dm, C