Manic Street Preachers - New Art Riot

TABBED BY:liko

Intro
e -----9-9----9-9/10\9-------------8--|
B --10-----10----------12-10-9-9---8--|
G ------------------------------9s\8--|
D ---------------------------------9--|
A ------------------------------------|
E ------------------------------------|

Verse
E D E               B A B
Vintage aromas      and vintage ideals
        A                    E               B
Old men greying to a dying countries needs

Chorus
G       D        C          Em        D
Museums are dead take a new art stance

Solo
e ------------------11-11h12p11p9h11-11h12p11p9h11-9-------------------------9-9----9-9/10\--|
B ----------9-7--------------------------------------12-12-12-12-12-12-12-10-----10----------|
G --9-9-7-9-----9-9--------------------------------------------------------------------------|
D --9-9-7-9----------------------------------------------------------------------------------|
A --7-7-5-7----------------------------------------------------------------------------------|
E -------------------------------------------------------------------------------------------|

e --9--------------------11h12p11p9h11-9/11-9/11--|
B ----12-10-9-9h10p9p7h9--------------------------|
G ------------------------------------------------|
D ------------------------------------------------|
A ------------------------------------------------|
E ------------------------------------------------|

Outro
E D E
B A B
A
E D E