Manic Street Preachers-Nobody Loved You

Intro:
With slide
e|--------------------------|
B|10/12-10------------------|
G|---------12----12---12\10-|
D|------------12------------|
A|--------------------------|
E|--------------------------|

e|-------------------------|
B|-10/12/13\12\10-10----11-|
G|-------------------10----|
D|-------------------------|
A|-------------------------|
E|-------------------------|

e|-------------------------14-14------14-14-|
B|-11/13/15\13\11---------------------------|
G|----------------12 12/14------12/14-------|
D|------------------------------------------|
A|------------------------------------------|
E|------------------------------------------|

Verse:
Bm
What's your story baby
F
No control of what I am saying
Bb
Winter leaves still make me believe
D
No vendettas just a cherry blossom tree

Chorus:
G
Nobody loved you
Dm                        Bb
Nobody made you feel so alone
                     D
Nobody loved you- No No