Manic Street Preachers-Ready For Drowning

Intro & Outro: Some organ arr. for guitar
G, D, Am, F under this

E----------------------------------------------------------------
B--12--12-10-12-10------------------------10-10--10-----12-13--13
G------------------12--12--11--11-9-11-12------------12----------
D----------------------------------------------------------------
A----------------------------------------------------------------
E----------------------------------------------------------------

E--12--12--10-12-10------
B-------------------13-12
G------------------------  x2
D------------------------
A------------------------
E------------------------

Verse:
C#m                C                        G
    Here's a true story  said someone to me yesterday
                            Em
    said he'd heard it in a taxi
C#m                         C                         G
    Must have had him at my mercy drown that that poor thing
                       Em
    put it out of it's misery
                       Am
    condemn it to it's future
                  C
    deny it's history
                  G
    deny it's history

Then this lead bit:

B--12-12-10--8-7-8-7---7----------------
G--------------------9---7-9-(11)--9-7-9

Chorus:

Em                 A5                  D5               G then G/F#
   So where are we going?   We are not ready for drowning.  x2

Middle 8:

Em, C#m  x 4    C, G, Em, Am, C, G  (lead bit).

G/F#-2x0033