Manic Street Preachers-Repeat (UK) 

Riff A
       A5     F#5     E5     D5
G-|--------------|------------7-|
D-|-----7------4-|-----2------7-|
A-|-----7------4-|-----2------5-|
E-|-0-0-5--0-0-2-|-0-0-0--0-0---|

Riff B   
      Guitar 1
P.M.
   A5
D-|-----------------|
A-|-0-0-0-0-0-0-0-0-|
E-|-----------------|
  |   Guitar 2      |
D-|-2---------------|
A-|-0---------------|
E-|-----------------|

Fill 1
   A5
G-|-7\-----|
D-|-7\-----|
A-|-5\-----|
E-|--------|

Riff C
       A5     F#5     E5  A5  D5
G-|--------------|------------7-|
D-|-----7------4-|-----2---7--7-|
A-|-----7------4-|-----2---7--5-|
E-|-0-0-5--0-0-2-|-0-0-0---5----|

Riff D
   A5      A5     D5
G-|-------|-------7-7-|
D-|-7-----|-7-----7-7-|
A-|-7-----|-7-----5-5-|
E-|-5-----|-5---------|

Riff E
   A5  D5  A5  D5  A5 D5
G-|-----7-------7------7-|
D-|-7---7---7---7---7--7-|
A-|-7---5---7---5---7--5-|
E-|-5-------5-------5----|

Intro
  The song starts with the sound of an air-raid siren, this can be
played by guitar using a slide (fret 16 G string, pitch B)

Verse 1
 Repeat after me   Fuck Queen and country
 |       {-}       |        {-}       |

 Riff A
 Riff B x2
 Fill 1

 Repeat after me   Fuck Queen and country
 |       {-}       |        {-}       |

 Riff A x2
 Riff B x4
 Fill 1

 Repeat after me   Fuck Queen and country
 |       {-}       |        {-}       |

 Riff A
 Riff C

Chorus
 Riff D                  Riff D
 Usless generation       Dumb flag scum
 Riff D                  Riff D
 Usless generation       Dumb flag scum

 Riff E

Repeat Verse 1

Repeat Chorus

Mid-Section
 |A5     |A5   D5| x8

 Riff E
 Fill 1

 (Drum Fill)

 Riff A x2

Repeat Chorus x2

Repeat Riff D x2

 Fill 1