Manic Street Preachers-So Dead 

Riff A
 P.M.
   N.C.
G-|-------------------|-------|
D-|---5-7----5-7----5-|-7-7---|
A-|---5-7----5-7----5-|-7-7---|
E-|-0-3-5--0-3-5--0-3-|-5-5---|

Riff B
   D            Dsus4
e-|----5-------|---------|
B-|------7-----|-8-------|
G-|--------7---|---7-----|
D-|------------|-----5---|
A-|-5--------5-|---------|
E-|------------|---------|

Riff C
  N.C.  G      A
e-|-----3-3-3--5--|
B-|-----3-3-3--5--|
G-|-----4-4-4--6--|
D-|-----5-5-5--7--|
A-|-----5-5-5--7--|
E-|-0-0-3-3-3--5--|

Riff D
   Asus4        A
e-|------------|---------|
B-|----3-------|-2-------|
G-|------2-----|---2-----|
D-|--------2---|-----2---|
A-|-0--------0-|---------|
E-|------------|---------|

Riff E
 P.M.
   D5            B5               
B-|----------------|------------------|
G-|-7-7-7-7-7-7\-4-|-4-4-4-4-4-4-4-/7-|
D-|-7-7-7-7-7-7\-4-|-4-4-4-4-4-4-4-/7-|
A-|-5-5-5-5-5-5\-2-|-2-2-2-2-2-2-2-/5-|
E-|----------------|------------------|

Riff F
 P.M.
   N.C.
G-|-----------------|--------------|
D-|---5-4----5-4----|-5-4--5--7-7--|
A-|---5-4----5-4----|-5-4--5--7-7--|
E-|-0-3-2--0-3-2--0-|-3-2--3--5-5--|

Intro

 |Riff A | x2    |Riff B | x2    |Riff C | x2    |

Verse 1
(riff B)
 Learn to sleep through misery
(riff B)
 Never gonna wake feeling free
(riff D)
 No one fucks as good as Marilyn
(riff D)
 Plastic surgery sure curses your sins
(riff B)
 You need a fix I'm your prostitute
(riff B)
 Repression says depravity's cute
(riff D)
 I'll feed you lines to make you smile
(riff D)
 Your so easy to dehumanise

Pre-Chorus
(riff E)
 It's not that I can't find worth in anything
(riff E)
 It's just that I can't find worth in enough
(riff E)
 It's not that I can't find worth in anything
Asus4  A  G
 In your love

Chorus
(riff A)
      Pay for it
(riff A)
      Pay for it
 Bm           C               G         A          
 Degrade your senses till you hate me

Verse 2: Repeat Verse 1

Pre-Chorus: Repeat Pre-chorus

Chorus: Repeat Chorus
 
Solo
 |D5     |x16

Solo
   D5
e-|--------|-------|----------|-
B-|-7-/8---|-/10---|----------|- Repeat
G-|--------|-------|-7-/9--\7-|-   x2
D-|--------|-------|--------7-|-

e-|-------------------|------------------------|-
B-|-10-10-10--12-10-8-|-7-bu-(8)-rb--bu-(8)-rb-|- Repeat
G-|-------------------|------------------------|-   x3
D-|-------------------|------------------------|-

e-|-8----------------|
B-|----10-po-8-po-7--| Repeat
G-|------------------|   x8
D-|------------------|

 Riff C x4

Chorus: Repeat Chorus

Chorus 2 
 (riff A)
       Pay for it
 (riff A)
       Pay for it
 Bm             C            G         A
 We promote all sickness and disease
 Bm         C          G            A
 Your gonna pay for my intelligence
 Bm        C                 G        A
 Cos I'm a slut and you just suck

Outro
  (muted 16th notes)
 |A     |x8

 |Riff F  |Riff A  | x2

 |A5 G5 F5  G5 F5 D5 |

 |Riff F  |Riff A  | x2

 |A5 G5 F5 |
 
  (muted 16th notes)
 |A5    | x8