The Everlasting

Standard tuning.

Intro:
e----------------------------------------------------------------------------10--
b---------10-------------10------------6-----------5-------------------------11--
g------------0--------------0------------0-----------0-------2p0---0---------12--
d-----10-------10----10-------10----7------7----5----------3-----3---3-------12--
a---8--------------7--------------5-----------3----------1-------------1-----10--
E--------------------------------------------------------------------------------
                  
Verse 
e------8--0--0-----6---9---8--5--6---8--10--3---9---8---
b-----10--5--6-----6---9---8--5--6---8--10--3---9---8---
g-----10--5--7-----7--10---9--5--7---9--10--3--10---9---
d-----10--7--7-----8--11--10--7--8--10--12--5--11--10---
a------8--7--5-----8--11--10--7--8--10--12--5--11--10---
E----------------5-6---9---8--5--6---8--10--3---9---8---

Chorus
Dm, Gm, C, Am, Bb, A (x2) 
Bb, C, F, E/F, Dm, Gm, A

E/Fm

e-----
b-----
g-----
d--3--
a--3--
E--0--

Solo:

All on g-string

g--12/2--2b3b5--5r2--2b3b5--2--5b7--7b9--9r7--7p5h7--7--7--6--6b8--5--10b12-12br10--9--7--5h7b9-

  --9r7p5--7--7/0--0--6--6--6--6b8--5--17-17-17-17-17-15-14-15-14------

End on:

e--0--
b--5--
g--7--
d--7--
a--5--
E--x--