Manic Street Preachers-Tsunami

Verse (First two bars repeated for intro)
E||---------------------------------|---------------------------------|----------------------------------|
B||-------------11--12--11----------|-------------11--12--11----------|--------------13--14--13----------|
G||---------11--------------11------|---------11--------------11------|----------13--------------13------|
D||-----11----------------------11--|-----11----------------------11--|------15----------------------15--|
A||--9------------------------------|--9------------------------------|--13------------------------------|
E||---------------------------------|---------------------------------|----------------------------------|
                                                                                                        
----------------------------------|--------------13--14--13----------|--------------13--14--13----------|
--------------13--14--13----------|----------16--------------16------|----------16--------------16------|
----------13--------------13------|------15----------------------15--|------15----------------------15--|
------15----------------------15--|--13------------------------------|--13------------------------------|
--13------------------------------|----------------------------------|----------------------------------|
----------------------------------|----------------------------------|----------------------------------|
                                                                       
----------------------------------|----------------------------------||
--------------16--14--------------|--------------16--14--------------||
----------16----------16----------|----------16----------16----------||
------16------------------16------|------16------------------16------||
--14--------------------------14--|--14--------------------------14--||
----------------------------------|----------------------------------||

Chorus
C#                           B
Tsunami Tsunami came washing over me,
Tsunami Tsunami came washing over me,
Bb                      Ebsus2
Can't speak can't think won't talk won't walk.

Middle
F#      Bbm     Ebm
Aaaah   Aaaah   Aaaah
B
In between, in between, in between, in between.

Lyrics
For you my dear sister, 
Holding on to me forever,
Disco dancing with the rapists,
Your only crime is silence.

Can't work at the anymore,
Can't move, I wanna stay at home,
Tied up to all the crutches,
Never far from your hands.

Tsunami Tsunami came washing over me,
Tsunami Tsunami came washing over me,
Can't speak can't think won't talk won't walk.

Doctors tells me that I'm cynical,
I tell him that it must be chemical,
So what am I doing girl,
Cry into my drink I disappear.

Eyes for teeth grating over me,
Bring down the shadows of my mind,
Sleep and breathe under our sheets,
Inhale the anxiety, 
In between, in between, in between, in between.

Tsunami Tsunami came washing over me,
Tsunami Tsunami came washing over me,
Tsunami Tsunami came washing over me,
Tsunami Tsunami came washing over me,
Through september under the weather.

In between, in between, in between, in between.

Tsunami Tsunami came washing over me,
Tsunami Tsunami came washing over me,
Tsunami Tsunami came washing over me,
Tsunami Tsunami came washing over me,
Take the GI's I Will have the spies.

http://www.sparkystabs.co.uk