You Love Us-Manic Street Preachers

Riff A                Riff B
    G                     D
G-|-9--/12-12--|      G-|------------|
D-|-9--/12-12--|      D-|-9--/12-12--|
A-|-7--/10-10--|      A-|-9--/12-12--|
E-|------------|      E-|-7--/10-10--|


Riff C
    C
G-|-5----|-7----|-9----|-12----|
D-|------|------|------|-------|
A-|-3----|-5----|-7----|-10----|
E-|------|------|------|-------|

Intro
           x4                 x2 
 |:Riff A  :|:F5   C5 |G5     :|

Verse
 F5         C5   G5
 We are not your sinners
 F5         C5      G5
 Our voices are for real 
 F5          C5  G5
 We realised and won't be mourned
 F5            C5   G5
 We gonna burn your deathmask uniforms

Pre-Chorus
 D5           B5 C5
 We won't die of devotion
 D5         B5     C5
 Understand we can never belong 
 D5         B5      C5
 Throw some acid in to your face
 D5                     B5       C5               
 Pollute your mineral water with strychnine taste

Chorus
 Riff A      Riff A
 You 
 Riff B      Riff B
 Love
 Riff C 
 Us          You love us    You love us    You love

 Riff A   Riff A
 You love us
 Riff B   Riff B
 You love us
 Riff C
 You love    You love us    You love us

Mid Section
                   x2
 |:F5   C5 |G5     :|

Verse  2: Repeat Verse 1

Pre-Chorus: Repeat Pre-Chorus

Chorus: Repeat Chorus

Solo
 |G5     |G5      |Bb5     |Bb5     |
 |C5     |C5      |Eb5     |Eb5     |   Repeat twice

Chorus: Repeat Chorus

Outro
                   x4
 |:F5    C5|G5     :| 

    N.C.
G-|----------------------------|-----------------|
D-|----------------------------|-----------------|  Repeat
A-|----------1-------1-------1-|-3-/5-5--3-/5-5--|    x2
E-|-1--2--3----1-2-3---1-2-3---|-1-/3-3--1-/3-3--|


    C          F                             F5 G5   F5 G5
G-|------------3-po-0----------------------|----------------|
D-|-------------------3-ho-5-5-po-3-po-0---|----------------| Repeat
A-|----------1---------------------------3-|-3-/5-5--3-/5-5-|   x6
E-|-1--2--3--------------------------------|-1-/3-3--1-/3-3-|

 |C5     |Bb5  F5  |F5 G5  F5 G5  | Repeat and fade