You Stole The Sun From My Heart-Manic Street Preachers

Riff 1
------------------------|------------------------|
------------------------|------------------------|
--------9-------9-------|--------8-------8-------|
-----6-------------6----|-----7-------------7----|
--7----------7----------|--7----------7----------|
------------------------|------------------------|

Riff2
------------------------|-------------------------|
------------------------|-------------------------|
--------9-------9-------|--------8----8h9p8-------|
-----6-------------6----|-----7--------------7----|
--7----------7----------|--7----------------------|
------------------------|-------------------------|

Intro
Riff 1 x1  Riff 2 x1  Riff 1 x2

Riff 1 x4
Drinking, water to stay thin,
Or is it to purify,
I love you all the same.

Riff 1 x4
But there's no, no real truce with my fury,
You don't have to believe me,
I love you all the same.

    B                         E
But you stole the sun from my heart
C#m           G#m         D
You stole the sun from my heeeeeeeaaaaaart
   B                         E
Oh You stole the sun from my heart
C#m           G#m
You stole the sun from
Bm            F#m
You stole the sun from
F
aaaaaaaaaah ah ah aaaaaahhh

Riff 1 x2

Riff 1 x3
You have, broken through my armour,
And I don't have an answer I,
                   riff 2 x1
I love you all the same.

Riff 1 x4
I paint, the things I want to see here,
But it don't come easy I,
I love you all the same.

    B                         E
But you stole the sun from my heart
                                      B--11----
C#m           G#m         D           G--13b---
You stole the sun from my heeeeeeeaaaaaart
   B                         E
Oh You stole the sun from my heart
C#m           G#m
You stole the sun from
Bm            F#m
You stole the sun from
F
aaaaaaaaaah  ah ah aaaaaahhh

Riff 1 x2

Riff 1 x4
Think I'm lost amongst the undergrowth,
So much so I woke up,
I love you all the same.

    B                         E
But you stole the sun from my heart
					     B---7--9---10--12--14--17---
C#m           G#m         D        G---9b-11b-12b-14b-16b-19b--  
You stole the sun from my heeeeeeeaaaaaart
   B                         E
Oh You stole the sun from my heart
C#m           G#m
You stole the sun from
Bm            F#m
You stole the sun from
F
aaaaaaaaaah  ah ah aaaaaahhh

Riff 1 x2

Riff 1 x3
I have, I've got to stop smiling,
It gives the wrong impression,
I love you all the same.

http://www.sparkystabs.co.uk