The Mighty Mighty Bosstones-The Impression That I Get

intro                                                                           
-4--4--x--7--7--x--4--4--x--4--4--x--5--5--x--4--4--x--4--4--x--7--7--x--|------
-5--5--x--7--7--x--5--5--x--4--4--x--5--5--x--5--5--x--5--5--x--7--7--x--|------
-4--4--x--8--8--x--4--4--x--4--4--x--6--6--x--4--4--x--4--4--x--8--8--x--|------
-------------------------------------------------------------------------|------
-------------------------------------------------------------------------|------
-------------------------------------------------------------------------|------
                                                                                
trumpet starts                                                                  
-4--4--x--7--7--x--4--4--x--4--4--x--5--5--x--4--4--x--4--4--x--7--7--|---------
-5--5--x--7--7--x--5--5--x--4--4--x--5--5--x--5--5--x--5--5--x--7--7--|---------
-4--4--x--8--8--x--4--4--x--4--4--x--6--6--x--4--4--x--4--4--x--8--8--|---------
----------------------------------------------------------------------|---------
----------------------------------------------------------------------|---------
----------------------------------------------------------------------|---------
                                                                               
verse                                                                           
-x--4--x--4--x--7--x--7--x--5--x--5--|--x--4--x--4--x--7--x--7--x--5--x--5------
-x--5--x--5--x--7--x--7--x--5--x--5--|--x--5--x--5--x--7--x--7--x--5--x--5------
-x--4--x--4--x--8--x--8--x--6--x--6--|--x--4--x--4--x--8--x--8--x--6--x--6------
-------------------------------------|------------------------------------------
-------------------------------------|------------------------------------------
-------------------------------------|------------------------------------------

|--x--4--x--4--x--7--x--7--x--5--x--5--|--x--4--x--4--x--7--x--7--x--5--x--5----
|--x--5--x--5--x--7--x--7--x--5--x--5--|--x--5--x--5--x--7--x--7--x--5--x--5----
|--x--4--x--4--x--8--x--8--x--6--x--6--|--x--4--x--4--x--8--x--8--x--6--x--6----
|--------------------------------------|----------------------------------------
|--------------------------------------|----------------------------------------
|--------------------------------------|----------------------------------------

|--x--4--x--4--x--7--x--7--x--5--x--5--|--x--4--x--4--x--7--x--7--x--5--x--5----
|--x--5--x--5--x--7--x--7--x--5--x--5--|--x--5--x--5--x--7--x--7--x--5--x--5----
|--x--4--x--4--x--8--x--8--x--6--x--6--|--x--4--x--4--x--8--x--8--x--6--x--6----
|--------------------------------------|----------------------------------------
|--------------------------------------|----------------------------------------
|--------------------------------------|----------------------------------------
   have you ever been close to tragedy    or close to folks who have 
                                                                                
|--x--4--x--4--x--7--x--7--x--5--x--5--|--x--4--x--4--x--7--x--7--x--5--x--5----
|--x--5--x--5--x--7--x--7--x--5--x--5--|--x--5--x--5--x--7--x--7--x--5--x--5----
|--x--4--x--4--x--8--x--8--x--6--x--6--|--x--4--x--4--x--8--x--8--x--6--x--6----
|--------------------------------------|----------------------------------------
|--------------------------------------|----------------------------------------
|--------------------------------------|----------------------------------------
   have you ever felt a pain so powerful  so heavy you collapse                                                                               

   pre-chorus                                             chorus                
|---------------------------|--------------------------|------------------------
|---------------------------|--------------------------|------------------------
|---------------------------|--------------------------|---9--9--9--9--9--9-----
|---4--4--4--7--7--7--7--7--|--4--4--4--7--7--7--7--7--|---9--9--9--9--9--9-----
|---4--4--4--7--7--7--7--7--|--4--4--4--7--7--7--7--7--|---7--7--7--7--7--7-----
|---2--2--2--5--5--5--5--5--|--2--2--2--5--5--5--5--5--|------------------------
 (he says no a few times here)                             never had to knock 
                                                                                
------|--------------------------|--------------------------|-------------------
------|--------------------------|--------------------------|-------------------
------|--------------------------|--------------------------|-------------------
9--9--|--9--9--9--9--9--9--9--9--|--6--6--6--6--6--6--6--6--|--7--7--7--7--7----
9--9--|--9--9--9--9--9--9--9--9--|--6--6--6--6--6--6--6--6--|--7--7--7--7--7----
7--7--|--7--7--7--7--7--7--7--7--|--4--4--4--4--4--4--4--4--|--5--5--5--5--5----
on       wood, but i know someone   has, which makes me wonder should,it makes 
         who                        if i
                                                                                
---------|--------------------------|--------------------------|----------------
---------|--------------------------|--------------------------|----------------
---------|--9--9--9--9--9--9--9--9--|--------------------------|----------------
7--7--7--|--9--9--9--9--9--9--9--9--|--9--9--9--9--9--9--9--9--|--6--6--6--6----
7--7--7--|--7--7--7--7--7--7--7--7--|--9--9--9--9--9--9--9--9--|--6--6--6--6----
5--5--5--|--------------------------|--7--7--7--7--7--7--7--7--|--4--4--4--4----
me wonder   never had to knock on      wood, but im glad i have-  yet because im                                                                              
if i                                   'nt
                                                                                
------------|--------------------------|
------------|--------------------------|
------------|--------------------------|
6--6--6--6--|--7--7--7--7--7--7--7--7--|
6--6--6--6--|--7--7--7--7--7--7--7--7--|
4--4--4--4--|--5--5--5--5--5--5--5--5--|
sure it isnt   good, thats the impression that i get.

2nd verse lyrics:
have you ever had the odds stacked up so high,
you have a strength most dont possess?
has it ever come down to do or die,
you gotta rise above the rest?

(after the verse and chorus twice it goes into this part)
------------------------|--------------------------|--4--4--x--7--7--x--4--4----
------------------------|--------------------------|--5--5-----7--7-----5--5----
------------------------|--------------------------|--4--4-----8--8-----4--4----
4--4--4--7--7--7--7--7--|--4--4--4--7--7--7--7--7--|----------------------------
4--4--4--7--7--7--7--7--|--4--4--4--7--7--7--7--7--|----------------------------
2--2--2--5--5--5--5--5--|--2--2--2--5--5--5--5--5--|----------------------------
                                                      im not a coward ive just                           
                                                                                
x--4--4--x--5--5--x--4--4--x--4--4--x--7--7--x--|--4--4--x--7--7--x--4--4--x----
---4--4-----5--5-----5--5-----5--5-----7--7-----|--5--5-----7--7-----5--5-------
---4--4-----6--6-----4--4-----4--4-----8--8-----|--4--4-----8--8-----4--4-------
------------------------------------------------|-------------------------------
------------------------------------------------|-------------------------------
------------------------------------------------|-------------------------------
never been tested. but if i was id like to think   (cant understand exactly what                                                                             
id pass
                                                                                
4--4--x--5--5--x--4--4--x--4--4--x--7--7----------------------------------------
4--4-----5--5-----5--5-----5--5-----7--7----------------------------------------
4--4-----6--6-----4--4-----4--4-----8--8----------------------------------------
--------------------------------------------------------------------------------
--------------------------------------------------------------------------------
--------------------------------------------------------------------------------
he says here) --im afraid of what i might find out

-back to chorus x2
-then to outro which has no guitar