Monkees - I'm a Believer

Intro:
Guitar 1                Riff 1-------------------->
e|------1---1---0---0--------------------------------------------------------|
B|------3---3---1---1--------------------------------------------------------|
G|--0---0---0---0---0--------------------------------------------------------|
D|-----------------------------3---------3--------3--------------------------|
A|----------------------3-h--5-----3-h-5-----3-h-5--------------------------|
E|---------------------------------------------------------------------------|

Verse 1:
G                       D       G
I thought love was only true in fairy tales
G                 D                G
Meant for someone else but not for me.
C               G
Love was out to get me
C                G
Thats the way it seemed.
C              G              D     Stop.
Disappointment haunted all my dreams.

Chorus:
               G   C  G
Then I saw her face,
    C       G     C  G
now Im a believer
C     G     C   G
Not a trace
   C           G    C  G
of doubt in my mind.
C     G     C
Im in love, ooh
       G                 F              Riff 1
Im a believer! I couldnt leave her if I tried.

Verse 2:
I thought love was more or less a given thing,
Seems the more I gave the less I got.
Whats the use in tryin?
All you get is pain.
When I needed sunshine I got rain.

Chorus:

Solo:
     G         D                  G                    G
e|-------------------------------------------------------|--------------------|
B|-------------------------------------------------------|--------------------|
G|-------------------------------------------------------|--------------------|
D|---5--5~--3~--------------3--4--5--5--3--------3--4--5-|-5--3--------3--4---|
A|-------------5--5--5~--5-----------------5--5----------|-------5--5---------|
E|-------------------------------------------------------|--------------------| X2

Verse 3
Love was out to get me
Thats the way it seemed.
Disappointment haunted all my dreams.

Chorus:

Ending:
Yes I saw her face,
now Im a believer
Not a trace
of doubt in my mind.
Said Im a believer
I'm a believer
Said Im a believer (Im a believer)
Said Im a believer (Im a believer)

http://www.sparkystabs.co.uk