Muse - Uno

Em	022000
Am	x02210
B7	x21202

Intro
Part 1
-----------------|-----------------|-----------------|-----------------|
-8-7-7-8-7-7-8---|-8-7-7-8-7-7-8---|-8-7-7-8-7-7-8---|-8-7-7-8-7-7-8---|
-9-9-9-9-9-9-9-0-|-9-9-9-9-9-9-9-0-|-9-9-9-9-9-9-9-0-|-9-9-9-9-9-9-9-0-|
---------------0-|---------------0-|---------------0-|---------------0-|
-----------------|-----------------|-----------------|-----------------|
-----------------|-----------------|-----------------|-----------------|

-------------------|---------------0-0-|---------------0-0-|----------------------------------|
-8-7-7-8-7-7-8-x-x-|-8-7-7-8-7-7-8-0-0-|-8-7-7-8-7-7-8-0-0-|-8-7-7-8-8-8-10-10-10-10-10-11-11-|
-8-8-8-8-8-8-8-x-x-|-9-9-9-9-9-9-9-----|-9-9-9-9-9-9-9-----|-9-9-9-9-9-9--9--9--9-------------|
---------------x-x-|-------------------|-------------------|----------------------------------|
-------------------|-------------------|-------------------|----------------------------------|
-------------------|-------------------|-------------------|----------------------------------|

Part 2
--------------------------|---------------------|-------------------------|
-11-10---11-10----11---11-|-11-10---11-10---11--|-11-10---11-10---11---11-|
-------9-------9-----0----|-------9-------9-----|-------9-------9----0----|
--------------------------|---------------------|-------------------------|
--------------------------|---------------------|-------------------------|
--------------------------|---------------------|-------------------------|

---------------------|-------------------------|-----------------------|-------------|
-11-10---11-10---11--|-11-10---11-10---11---11-|-11-10---11-10---11----|-------------|
-------9-------9-----|-------8-------8----0----|-------9-------9----0--|-------------|
---------------------|--------------------0----|--------------------0--|-------------|
---------------------|-------------------------|-----------------------|--2----------|
---------------------|-------------------------|-----------------------|--0----------|

Verse
           Em
This means nothing to me
               Am
'Cause you are nothing to me
             B7
And it means nothing to me
              Em
That you blew this away

Verse
NC
'Cause you could have been number one
If you only found the time
And you could have ruled the whole world
If you had the chance

Chorus:  
----------------------------|----------------------------|--------------------------|
----------------------------|----------------------------|--------------------------|
-9--9-9-9-x-9--9-x-9-x-9--7-|-9--9-9-9-x-9--9-x-9-x-9--7-|-9--9-9-9--5--9--9-9-9--7-|
----------x------x---x------|----------x------x---x------|--------------------------|
-7--7-7-7-x-7--7-x-7-x-7--5-|-7--7-7-7-x-7--7-x-7-x-7--5-|-7--7-7-7--3--7--7-7-7--5-|
----------------------------|----------------------------|--------------------------|
                                                                                             *
-------------------------------|-----------------------------|-----------------------------|-0--
-------------------------------|-----------------------------|-----------------------------|-0--
-9--9-9-9-9-9-9-9-9-9-9-9--8-8-|-8-8-8--x--8-8-8-8-8--8--x-x-|-5--5-5-5--5--5--5-5-5-5-5-5-|-0--
-------------------------------|-----------------------------|-----------------------------|-2--
-7--7-7-7-7-7-7-7-7-7-7-7--6-6-|-6-6-6--x--6-6-6-6-6--6--x-x-|-3--3-3-3--3--3--3-3-3-3-3-3-|-2--
-------------------------------|-----------------------------|-----------------------------|-0--

You could have been number one
And you could have ruled the whole world
And we could have had so much fun
But you blew it away

Solo
e---------------------------------------------------------------0----
B---------------------------------------------------------------0----
G---------------------------------------------------------------0----
D---------------------------------------------------------------2----
A--4--3--2-2---2------------------4--3--2-2---2---------4--3-2--2----
E------------3----0h2-3-2-2--0-0------------2---0h2-3-0---------0----

Verse
             Em
You're still nothing to me
            Am
And this is nothing to me
              B7
And you don't know what you've done
                    Em
But I'll give you a clue

Verse
-----------------|-----------------|---------------|---------------|
-----------------|-----------------|---------------|---------------|
-------6---6---5-|-4--4---0--4-----|---------------|---------------|
-----------------|-----------------|-------5---4---|-4----2--2-----|
-----------------|-----------------|---------------|---------------|
-----------------|-----------------|---------------|---------------|

Strum behind bridge
  ^
--x-------------------|-----------------|------------------|-----------|
--x-------------------|-----------------|------------------|-----------|
--x--------6---6---5--|-4---4---0--4----|-----------6---5--|-4---------|
--x-------------------|-----------------|---2----2---------|-----------|
----------------------|-----------------|------------------|-----------|
----------------------|-----------------|------------------|-----------|

'Cause you could have been number one
If you only had the chance
And you could have ruled the whole world
If you had the time

Chorus upto *, then

----------------------------------|-------------------------------|
----------------------------------|-------------------------------|
--4-4-4-4-4-x-4-4-4-4-4-x-4-4-4-4-|--4-4-4-4-4-x-4-4-4-4-7--------|
------------x-----------x---------|------------x------------------|
--2-2-2-2-2-x-2-2-2-2-2-x-2-2-2-2-|--2-2-2-2-2-x-2-2-2-2-5--------|
----------------------------------|-------------------------3b----|

Chorus
               Em
You could have been number one
                   Am
And you could have ruled the whole world
             B7                    Am
And we could have had so much fun
                Em
But you blew it away

Outro
Play intro part 2

http://www.sparkystabs.co.uk