Nickelback-Never Again

Dropped D tuning, DADGBe

Intro (8 bars bass)
    (NC)                          F5  G5   (NC)                          G5  F5
E|--------------------|-----------------|--------------------|-----------------|
B|--------------------|-----------------|--------------------|-----------------|
G|---7-7-7---10-10-10-|---5-5-5---------|---7-7-7---10-10-10-|---5-5-5---------|
D|--------------------|-----------3-3-5-|--------------------|-----------5-5-3-|   x2
A|---5-5-5---8--8--8--|---3-3-3---3-3-5-|---5-5-5---8--8--8--|---3-3-3---5-5-3-|
D|--------------------|-----------3-3-5-|--------------------|-----------5-5-3-|

Verse
(NC)
He's drunk again, it's time to fight,
She must have done something wrong tonight.
The living room becomes a boxing ring,
                                  C5
It's time to run when you see him clenching his hands,
      G5
She's just a woman... never again.

Play intro

Verse
I hear her scream, from down the hall,
Amazing she can even talk at all,
She cries to me... "go back to bed"
I'm terrified that she'll wind up dead in his hands,
She's just a woman... never again.

Chorus
     D5      C5        G5      F5  G5
E|-----------------|-----------------|
B|-----------------|-----------------|
G|---7-7-7---5-5-5-|-----------------|   x3
D|---7-7-7---5-5-5-|---5-5-5---3-3-5-|
A|---5-5-5---3-3-3-|---5-5-5---3-3-5-|
D|-----------------|---5-5-5---3-3-5-|

Been there before but not like this,
Seen it before but not like this,
                         C5
Never before have I ever seen it this bad,
      G5
She's just a woman... never again.

Play intro

Verse
Just tell the nurse you slipped and fell,
It starts to sting as it starts to swell,
She looks at you... she wants the truth,
It's right out there in the waiting room with those hands,
Lookin' just as sweet as he can... never again.

Chorus

Middle

Riff 1
     F5  D5  F5  D5    F5  D5 G5 F5 G5 G#5
E|-----------------|---------------------|
B|-----------------|---------------------|
G|-----------------|---------------------|
D|---3-3-0---3-3-0-|---3-3-0--5--3--5--6-|
A|---3-3-0---3-3-0-|---3-3-0--5--3--5--6-|
D|---3-3-0---3-3-0-|---3-3-0--5--3--5--6-|

Riff 2
  G5 F5 G#5 D5
E|------------|
B|------------|
G|------------|
D|-5--3--6--0-|
A|-5--3--6--0-|
D|-5--3--6--0-|

Riff 1 x4 Riff 2

                                        Riff 2
Father's a name you haven't earned yet.
                                  Riff 2
You're just a child with a temper.
                                    Riff 2
Haven't you heard "don't hit a lady"
                                     Riff 1 x4
Kicking your ass would be a pleasure.

Verse
He's drunk again, it's time to fight,
Same old shit, just on a different night,
She grabs the gun, she's had enough,
Tonight she'll find out how fuckin' tough is this man,
Pulls the trigger fast as she can... never again.

Chorus x2

Outro
Riff 1 x4
Never again.

http://www.sparkystabs.co.uk