Here's the tab for I Hate Myself And I Want To Die

E-------------------------------------------------------
B--------------------------------------------------------
G------4------4------------------------------------------
D------4------4---------1-----1-----0-----1-------------INTRO
A------2------2---------1-----1-----0-----1--------------
E-----------------------------------------------------------

E------------------------------------------------------------
B-------------------------------------------------------------
G-----------------2---x---2----------------------------------------
D-----4----4------2---x---2-----4----4--------------------------------
A-----4----4------0---x---0-----4----4----------------------------------
E-----2----2--------------------2----2-------------------------------

There's the Verse and the chorus for ya please you you have anything I
might want E-mail me