In Bloom-Nirvana

Intro: A#5 G5 F5 G#5

Verse: A#5 F#5 D#5 B5 A5

Chorus: A#5 G5  play that 4x then:
 C5 D#5

Solo:
-------------------|---------------------|-----------------------------|
-------------------|---------------------|-----------------------------|
--8r---------------|--------0-6-6r-------|--6----6-8-6-8b--8-----6-8-8r|
-------------------|---------------------|-------------------6-8-------|
-------------------|---------------------|-----------------------------|
-------------------|---------------------|-----------------------------|

-------------------------|-----------------------------|--------------------------|
-------------------------|----------------8----8-9-8-9r|-----9-11-11b---11r-------|
-8~-6-8---6-8r--6-8-8----|-10r----10-10-----10---------|--------------------------|
----------------------0--|-----------------------------|---0----------------------|
-------------------------|-----------------------------|--------------------------|
-------------------------|-----------------------------|--------------------------|
                        
---------------------|-------------------------------|
-----------------8---|--8----8--7--6-----------------|
----------6----6-----|-----6---------4-4-4-4-7-7-7-7-|
---------------------|---------------4-4-4-4-7-7-7-7-|
---------------------|---------------2-2-2-2-5-5-5-5-|
---------------------|-------------------------------|

Sell the kids for food
Weather changes moods
Spring is here again
Reproductive glands

He's the one who likes all our pretty songs and he
likes to sing along, and he likes to shoot his guns,
but he knows not what it means, Know not what it means and I say

We can have some more
Nature is a whore
Bruises on the fruit
Tender age in bloom