Polly-Nirvana

Verse:
      Em             G5                 D        C
e|---------------------------------|----2--2-------------------------|
B|---------------------------------|----3--3-----5--------5----------|
G|----0--------0--0-----------0----|----2--2--X--5--------5--5--0----|
B|----2--------2--0--5--5-----0----|----0--0--X--5--------5--5--0----|
A|----2--------2--0--5--5--X-------|----------X--3--------3--3-------|
E|----0--------0-----3--3--X-------|---------------------------------|

Polly Wants a Cracker
I think I should get off her first
I think she wants some water
To put out the blow torch

Chorus:
      D         C                        G        Bb5          D
e|----2----------------------------|---------------------------2-----|
B|----3------X--5-------5--5-------|---------------------------3-----|
G|----2------X--5-------5--5--0----|-----4--4--X--3------3--3--2-----|
B|----0------X--5-------5--5--0----|-----5--5--X--3------3--3--0-----|
A|-----------X--3-------3--3--0----|-----5--5--X--1------1--1--------|
E|---------------------------------|-----3--3------------------------|

Isn't me
Have some seed
Let me clip
Dirty wings
Let me take a ride
Hurt yourself
Want some help
Please myself
Got some rope
Have been told
Promise you
Have been true
Let me take a ride
Hurt yourself
Want some help
Please myself

Polly wants a cracker
Maybe she would like more food
She asks me to untie her
A chase would be nice for a few

                   Polly said...
    |----------------------------------------------
    |----------------------------------------------
    |----------------------------------------------
    |--------------------0--0--0-------------------
    |--------------------------------3---3--3--3---
    |--0-----3--3--3-------------------------------

Polly says her back hurts
And she's just as bored as me
She caught me off my guard
It amazes me, the will of instinct