Don't speak                                   


                                                                        No Doubt
Rhythm Guitar



     Cm                                                  
E||--------------------------|--------------------------|
B||--4-----4-----4-----4-----|--4-----4-----4-----4-----|
G||--5-----5-----5-----5-----|--5-----5-----5-----5-----|
D||-----5-----5-----5-----5--|-----5-----5-----5-----5--|
A||--------------------------|--------------------------|
E||--------------------------|--------------------------|


                              Gm           Fm           
---------------------------|---------------------------|
--4-----4-----4-----4------|--3-----3------1-----1-----|
--5-----5-----5-----5------|--3-----3------1-----1-----|
-----5-----5-----5-----5-3-|-----5-----5\3----3-----3--|
---------------------------|---------------------------|
---------------------------|---------------------------|


  Bb           Gm              Fm          Bb           
----------------------------|--------------------------|
--3-----3------3-----3------|--1-----1-----3-----3-----|
--3-----3------3-----3------|--1-----1-----3-----3-----|
-----3-----3-5----5-----5\3-|-----3-----3-----3-----3--|
----------------------------|--------------------------|
----------------------------|--------------------------|


  Cm          Gm              Fm          Bb           
---------------------------|--------------------------|
--4-----4-----3-----3------|--1-----1-----3-----3-----|
--5-----5-----3-----3------|--1-----1-----3-----3-----|
-----5-----5-----5-----5\3-|-----3-----3-----3-----3--|
---------------------------|--------------------------|
---------------------------|--------------------------|


  Gm          Cm              Fm          Bb            
---------------------------|---------------------------|
--3-----3-----4-----4------|--1-----1-----3-----3------|
--3-----3-----5-----5------|--1-----1-----3-----3------|
-----5-----5-----5-----5\3-|-----3-----3-----3-----5\3-|
---------------------------|---------------------------|
---------------------------|---------------------------|


  Cm          Gm              Fm          Bb          
---------------------------|-------------------------|
--4-----4-----3-----3------|--1-----1-----3-----3----|
--5-----5-----3-----3------|--1-----1-----3-----3----|
-----5-----5-----5-----5\3-|-----3-----3-----3-------|
---------------------------|-------------------------|
---------------------------|-------------------------|


  Eb          C                                
--------------------------|-------------------|
--8-----8-----6-----6--6--|--5----------------|
--8-----8-----7-----7--7--|--5----------------|
-----8-----8-----8-----8--|--5----------------|
--------------------------|-------------------|
--------------------------|-------------------|


  Fm                 Bbm               Eb              C                    
---------------------6-6-x-6-x-6-x--|------------------8--x-x-8--8--8--x-x-|
--9---x-9--9--9--x-x-6-6-x-6-x-6-x--|--8-8-8-8-8-8-x-x-8--x-x-8--8--8--x-x-|
--10--x-10-10-10-x-x-6-6-x-6-x-6-x--|--8-8-8-8-8-8-x-x-9--x-x-9--9--9--x-x-|
--10--x-10-10-10-x-x-8-8-x-8-x-8-x--|--8-8-8-8-8-8-x-x-10-x-x-10-10-10-x-x-|
--8---x-8--8--8--x-x-8-8-x-8-x-8-x--|--6-6-6-6-6-6-x-x-10-x-x-10-10-10-x-x-|
---------------------6-6-x-6-x-6-x--|------------------8--x-x-8--8--8--x-x-|


  Bbm            C                      Fm                  Bbm    C7       
--6-6-6-6-6-6-x--8--x-x-8--8--8--x-x-|----------------------6--x-x---------|
--6-6-6-6-6-6-x--8--x-x-8--8--8--x-x-|--9--9---9--9--9--x-x-6--x-x-11--x-x-|
--6-6-6-6-6-6-x--9--x-x-9--9--9--x-x-|--10-10--10-10-10-x-x-6--x-x-9---x-x-|
--8-8-8-8-8-8-x--10-x-x-10-10-10-x-x-|--10-10--10-10-10-x-x-8--x-x-8---x-x-|
--8-8-8-8-8-8-x--10-x-x-10-10-10-x-x-|--8--8---8--8--8--x-x-8--x-x-10--x-x-|
--6-6-6-6-6-6-x--8--x-x-8--8--8--x-x-|----------------------6--x-x-8---x-x-|


  Fm                 Bbm                Eb              C                    
---------------------6-6-x-6-x-6-x-x-|------------------8--x-x-8--8--8--x-x-|
--9---x-9--9--9--x-x-6-6-x-6-x-6-x-x-|--8-8-8-8-8-8-x-x-8--x-x-8--8--8--x-x-|
--10--x-10-10-10-x-x-6-6-x-6-x-6-x-x-|--8-8-8-8-8-8-x-x-9--x-x-9--9--9--x-x-|
--10--x-10-10-10-x-x-8-8-x-8-x-8-x-x-|--8-8-8-8-8-8-x-x-10-x-x-10-10-10-x-x-|
--8---x-8--8--8--x-x-8-8-x-8-x-8-x-x-|--6-6-6-6-6-6-x-x-10-x-x-10-10-10-x-x-|
---------------------6-6-x-6-x-6-x-x-|------------------8--x-x-8--8--8--x-x-|


  Bbm            C                      Fm                  Db     Eb      
--6-6-6-6-6-6-x--8--x-x-8--8--8--x-x-|------------------------------------|
--6-6-6-6-6-6-x--8--x-x-8--8--8--x-x-|--9--9---9--9--9--x-x-6--x-x-8--x-x-|
--6-6-6-6-6-6-x--9--x-x-9--9--9--x-x-|--10-10--10-10-10-x-x-6--x-x-8--x-x-|
--8-8-8-8-8-8-x--10-x-x-10-10-10-x-x-|--10-10--10-10-10-x-x-6--x-x-8--x-x-|
--8-8-8-8-8-8-x--10-x-x-10-10-10-x-x-|--8--8---8--8--8--x-x-4--x-x-6--x-x-|
--6-6-6-6-6-6-x--8--x-x-8--8--8--x-x-|------------------------------------|


  Cm                         Gm         Fm            Bb         Gm          
--------------------------|------------------------|------------------------|
--4-----4-----4-----4-----|--3-----3----1-----1----|--3-----3----3-----3----|
--5-----5-----5-----5-----|--3-----3----1-----1----|--3-----3----3-----3----|
-----5-----5-----5-----5--|-----5----------3-------|-----3----------5-------|
--------------------------|------------------------|------------------------|
--------------------------|------------------------|------------------------|


  Fm         Gm          Cm          Gm                
----------------------|--3--3--3-3-3-3--3-3-3-3-3-3-3-|
--1-----1----3--------|--4--4--4-4-4-3--3-3-3-3-3-3-3-|
--1-----1----3--------|--5--5--5-5-5-3--3-3-3-3-3-3-3-|
-----3----------------|--5--5--5-5-5-5--5-5-5-5-5-5-5-|
----------------------|--3--3--3-3-3-5--5-5-5-5-5-5-5-|
----------------------|--------------3--3-3-3-3-3-3-3-|


  Fm              Bb               Eb          Bb              
--1--1-1-1-1-1-1--1-1-1-1-1-1-1-|-----------------------------|
--1--1-1-1-1-1-3--3-3-3-3-3-3-3-|--8--8--8-8-8-6--6-6-6-6-6---|
--1--1-1-1-1-1-3--3-3-3-3-3-3-3-|--8--8--8-8-8-7--7-7-7-7-7---|
--3--3-3-3-3-3-3--3-3-3-3-3-3-3-|--8--8--8-8-8-8--8-8-8-8-8---|
--3--3-3-3-3-3-1--1-1-1-1-1-1-1-|--6--6--6-6-6-8--8-8-8-8-8---|
--1--1-1-1-1-1------------------|--------------6--6-6-6-6-6---|


  C                          Fm                Bbm            
--------------------------|--------------------6---6-6-6-x-x-|
--5---5-5--5---5---5------|--9----9--9--9--x-x-6---6-6-6-x-x-|
--5---5-5--5---5---5--x-x-|--10---10-10-10-x-x-6---6-6-6-x-x-|
--5---5-5--5---5---5------|--10---10-10-10-x-x-8---8-8-8-x-x-|
--3---3-3--3---3---3------|--8----8--8--8--x-x-8---8-8-8-x-x-|
--------------------------|--------------------6---6-6-6-x-x-|


  Eb             C                      Bbm            C                    
-----------------8---8--8--8--8--x-x-|--6--6-6-6-6-x-x-8---8--8--8--8--x-x-|
--8--8-8-8-8-x-x-8---8--8--8--8--x-x-|--6--6-6-6-6-x-x-8---8--8--8--8--x-x-|
--8--8-8-8-8-x-x-9---9--9--9--9--x-x-|--6--6-6-6-6-x-x-9---9--9--9--9--x-x-|
--8--8-8-8-8-x-x-10--10-10-10-10-x-x-|--8--8-8-8-8-x-x-10--10-10-10-10-x-x-|
--6--6-6-6-6-x-x-10--10-10-10-10-x-x-|--8--8-8-8-8-x-x-10--10-10-10-10-x-x-|
-----------------8---8--8--8--8--x-x-|--6--6-6-6-6-x-x-8---8--8--8--8--x-x-|


  Fm                        C          Fm                  Bbm             
------------------------------------|----------------------6--6-6-6-6-x-x-|
--9---9--9--9--9--x-x-9--9--8----8--|--9---9--9--9--9--x-x-6--6-6-6-6-x-x-|
--10--10-10-10-10-x-x-6--6--9----9--|--10--10-10-10-10-x-x-6--6-6-6-6-x-x-|
--10--10-10-10-10-x-x-8--8--10---10-|--10--10-10-10-10-x-x-8--8-8-8-8-x-x-|
--8---8--8--8--8--x-x-8--8--10---10-|--8---8--8--8--8--x-x-8--8-8-8-8-x-x-|
----------------------------8----8--|----------------------6--6-6-6-6-x-x-|


  Eb             C                      Bbm            C                   
-----------------8---8--8--8--8--x-x-|--6--6-6-6-6-x-x-8---x-8--8--8--x-x-|
--8--8-8-8-8-x-x-8---8--8--8--8--x-x-|--6--6-6-6-6-x-x-8---x-8--8--8--x-x-|
--8--8-8-8-8-x-x-9---9--9--9--9--x-x-|--6--6-6-6-6-x-x-9---x-9--9--9--x-x-|
--8--8-8-8-8-x-x-10--10-10-10-10-x-x-|--8--8-8-8-8-x-x-10--x-10-10-10-x-x-|
--6--6-6-6-6-x-x-10--10-10-10-10-x-x-|--8--8-8-8-8-x-x-10--x-10-10-10-x-x-|
-----------------8---8--8--8--8--x-x-|--6--6-6-6-6-x-x-8---x-8--8--8--x-x-|


                         Db             Fm/CAbFmAb/C     
----------------------|--4--4-4-4-4-4-4-4-4-4-4-4-4-4---|
----------------------|--6--6-6-6-6-6-6-6-6-4-6-4-4-4---|
----------------------|--6--6-6-6-6-6-6-5-5-5-5-5-5-5---|
--3----1--------------|-------------------------------6-|
------------3---------|---------------------------------|
-----------------4----|---------------------------------|


  B               EbmGb/Bb         A/5-                  Absus4    Ab          
--2-2-2-2-2-2-2-2-2--2-2-2-2-2--|--5---5---5----------|--4-4--4--4-4----------|
--4-4-4-4-4-4-4-4-4--2-2-2-2-2--|--4---4---4----------|--4-4--4--4-4----------|
--4-4-4-4-4-4-4-4-3--3-3-3-3-3--|--6---6---6----------|--6-6--6--6-5----------|
--------------------------------|--7---7---7----------|--6-6--6--6-6----------|
--------------------------------|---------------------|-----------------------|
--------------------------------|---------------------|-----------------------|


  Cm             Gm           Fm           Bb        
-----------3---------------|------------------------|
-------4h6---6---3---------|------4--6h8p6---8------|
-----5-------------3-------|----5-------------------|
-----------------------5h6-|------------------------|
---------------------------|------------------------|
---------------------------|------------------------|


  Cm           Gm             Fm              Bb            
-----------3---------------|----------3h4p3h4-6---4p3------|
-------4h6---6---3---------|--------4-----------------6----|
-----5-------------3-------|------5------------------------|
-----------------------5h6-|----x--------------------------|
---------------------------|-------------------------------|
---------------------------|-------------------------------|


  Cm                  Gm                       
-----------8h-10h-11--10p11h10-8h10----8------|
---------8--------------------------11---8h11-|
-------8--------------------------------------|
----10----------------------------------------|
----------------------------------------------|
----------------------------------------------|


  Fm              Bb                   Gm                 Cm                    
------------------------------------|------------------------------------------|
-----8------8h-9h-11--9p11h9-8------|------------------------------------------|
--10---8h10-------------------------|------------------------------------------|
------------------------------------|-----------------------------8h10p-8------|
------------------------------------|-------------8h10----8h10h11----------11--|
------------------------------------|-----8h10-11------11----------------------|


  Fm                        Cm          Gm            
-------------------------|---------------------------|
-------------------------|--4-----4-----3-----3------|
-------------------------|--5-----5-----3-----3------|
-------------------------|-----5-----5-----5-----5\3-|
--10h11p10---------------|---------------------------|
-------------------------|---------------------------|


  Fm          Bb             F5              Bb5              
--------------------------|----------------------------------|
--1-----1-----3-----3-----|----------------------------------|
--1-----1-----3-----3-----|------------------3-3-3-3-3-3-3-3-|
-----3-----3-----3-----3--|--3-3-3-3-3-3-3-3-3-3-3-3-3-3-3-3-|
--------------------------|--3-3-3-3-3-3-3-3-1-1-1-1-1-1-1-1-|
--------------------------|--1-1-1-1-1-1-1-1-----------------|


    Fm                  Bbm               Eb             C                    
|-----------------------6--6-6-6-6-x-x-|-----------------8---8--8--8--8--x-x-|
|---9---9--9--9--9--x-x-6--6-6-6-6-x-x-|--8--8-8-8-8-x-x-8---8--8--8--8--x-x-|
|*--10--10-10-10-10-x-x-6--6-6-6-6-x-x-|--8--8-8-8-8-x-x-9---9--9--9--9--x-x-|
|*--10--10-10-10-10-x-x-8--8-8-8-8-x-x-|--8--8-8-8-8-x-x-10--10-10-10-10-x-x-|
|---8---8--8--8--8--x-x-8--8-8-8-8-x-x-|--6--6-6-6-6-x-x-10--10-10-10-10-x-x-|
|-----------------------6--6-6-6-6-x-x-|-----------------8---8--8--8--8--x-x-|


  Bbm            C                     Fm                  Bbm    C7       5x
--6--6-6-6-6-x-x-8---x-8--8--8--x-x-|----------------------6--x-x----------||
--6--6-6-6-6-x-x-8---x-8--8--8--x-x-|--9---9--9--9--9--x-x-6--x-x-11--x-x--||
--6--6-6-6-6-x-x-9---x-9--9--9--x-x-|--10--10-10-10-10-x-x-6--x-x-9---x-x-*||
--8--8-8-8-8-x-x-10--x-10-10-10-x-x-|--10--10-10-10-10-x-x-8--x-x-8---x-x-*||
--8--8-8-8-8-x-x-10--x-10-10-10-x-x-|--8---8--8--8--8--x-x-8--x-x-10--x-x--||
--6--6-6-6-6-x-x-8---x-8--8--8--x-x-|----------------------6--x-x-8---x-x--||


  Fm                 
--1----------------||
--1----------------||
--1----------------||
--3----------------||
--3----------------||
--1----------------||