The Offspring-Amazed

/ \ - slide
: - let ring
pm - palm mute (pm until the line above stops, then play without pm)


intro/main riff

|-----------------------------------------------------------|
|-----------------------------------------------------------|
|------------------------------7-7-7-7-7-7-7-5--5-5-5-5-5-5-|
|-7-7-7-7-7-7-7-5--5-5-5-5-5-5-7-7-7-7-7-7-7-5--5-5-5-5-5-5-|
|-7-7-7-7-7-7-7-5--5-5-5-5-5-5-5-5-5-5-5-5-5-3--3-3-3-3-3-3-|
|-5-5-5-5-5-5-5-3--3-3-3-3-3-3------------------------------|

then guitar 1 joins with

|-5-5-5--7--8--5-5-5--7--8--5-5-5--7--8/10--8-7-8--5--|
|-----------------------------------------------------|
|-----------------------------------------------------|
|-----------------------------------------------------|
|-----------------------------------------------------|
|-----------------------------------------------------|

|-----|
|-----|
|-----|
|-7:--|
|-7:--|
|-5:--|

bridge

|------------------------------------|
|------------------------------------|
|------------------------------------|
|-7----------------------------------|
|-7----------------------------------|
|-5---7-8-5-7-8-5-7-8--8/10-8-7\3-3--|

chorus

|----------------------------------------------|
|----------------------------------------------|
|------5-5--9-9-9-9-9-9------------7-7-7-7-7-7-|
|-7-7--5-5--9-9-9-9-9-9---5-5-5-5--7-7-7-7-7-7-|
|-7-7--3-3--7-7-7-7-7-7---5-5-5-5--5-5-5-5-5-5-|
|-5-5---------------------3-3-3-3--------------|

|----------------------------------------------|
|----------------------------------------------|
|------5-5--9-9-9-9-9-9------------------------|
|-7-7--5-5--9-9-9-9-9-9---5-5-5-5--2-2-2-2--6/-|
|-7-7--3-3--7-7-7-7-7-7---5-5-5-5--2-2-2-2--6/-|
|-5-5---------------------3-3-3-3--0-0-0-0--4/-|

|----------------------------------------------|
|----------------------------------------------|
|------5-5--9-9-9-9-9-9------------7-7-7-7-7-7-|
|-7-7--5-5--9-9-9-9-9-9---5-5-5-5--7-7-7-7-7-7-|
|-7-7--3-3--7-7-7-7-7-7---5-5-5-5--5-5-5-5-5-5-|
|-5-5---------------------3-3-3-3--------------|

|----------------------------------------------|
|----------------------------------------------|
|------5-5--9-9-9-9-9-9------------7-7-7-7-7-7-|
|-7-7--5-5--9-9-9-9-9-9---5-5-5-5--7-7-7-7-7-7-|
|-7-7--3-3--7-7-7-7-7-7---5-5-5-5--5-5-5-5-5-5-|
|-5-5---------------------3-3-3-3--------------|

|-----|
|-----|
|-----|
|-7:--|
|-7:--|
|-5:--|

bridge 2

pm
|------------------------------------------------------------|
|------------------------------------------------------------|
|-------------------------------7-7-7-7-7-7-7-9-9-9-9/12-12--|
|-7-7-7-7-7-7-7-5-5-5-5-5-5-5-5-7-7-7-7-7-7-7-9-9-9-9/12-12--|
|-7-7-7-7-7-7-7-5-5-5-5-5-5-5-5-5-5-5-5-5-5-5-7-7-7-7/10-10--|
|-5-5-5-5-5-5-5-3-3-3-3-3-3-3-3------------------------------|

final chord 

|-----|
|-----|
|-----|
|-7:--|
|-7:--|
|-5:--|

lyrics

sometimes i think i'm gonna drown
cause everyone around's so hollow
i'm alone
sometimes i think i'm going down
but no one makes a sound 
they follow 
i'm alone

yeah if i make it i'd be amazed 
just to find tomorrow
one more day and i'd be amazed
just to see it waiting
and if i make it i'm still alone
no more hope for better days
but if i could change 
then i'd really be amazed

and when you know you can't relate
to one more shining face 
your heart breaks 
no one cares
and when you know you can't go on
cause everything is wrong
your heart breaks
but no one's there