The Offspring-Come Out And Play (Keep 'em Seperated)
 
  guitar 1
E ----------------------------------|
B ----------------------------------|  This is used in the chorus and verse,
G --4----7-----------4----7---------|  in the verse play some chords a few
D --4----7---4-7-----4----7---4-7---|  times more with some palm-muting.
A --2----5---4-7-----2----5---4-7---|
E -----------2-5--------------2-5---|
 
  guitar 2
E ----------------------------------|
B ----------------------------------|
G -9-9-9---12/s\7---9-9-9--12/s\7---|   Play this a few times with guitar 1
D -7-7-7---10/s\5---7-7-7--10/s\5---|   before the singing starts.
A ----------------------------------|
E ----------------------------------|
 
  that egyptian guitar riff (guitar 2)
E ----------------------------------|
B ----------------------------------|
G ----------------------------------|   This is played with the guitar 1
D -------1-2-4-2-1------------------|   verse part in the background
A -2/h\3-----------3-2---3-2--------|
E ----------------------------------|
 
  guitar 1
E ----------------------------------|
B ----------------------------------|   
G -4-4--7-7--6-6-6-------2----------|   "It goes down the same as the 
D -2-2--5-5--4-4-4--4-4--0----------|    thousand before..."
A ------------------2-2-------------|
E ----------------------------------|