Offspring-Don't Pick It Up

x - scratch 
: - let ring
h - hammer on 
p - pull off 

intro
|-2:--2:--2:--2:--|
|-2:--2:--2:--2:--|
|-3:--3:--3:--3:--|
|-4:--4:--4:--4:--|
|-4:--4:--4:--4:--|
|-2:--2:--2:--2:--|

intro 2/bridge
|----------------------------------------------2-2-2-2-2-2--|
|-------------------------------2--------------2-2-2-2-2-2--|
|----------------3--------------3--------------3-3-3-3-3-3--|
|-4--------------4--------------4--------------4-4-4-4-4-4--|
|-4--4-4-4-4-4-4-4--4-4-4-4-4-4-4--4-4-4-4-4-4-4-4-4-4-4-4--|
|-2--2-2-2-2-2-2-2--2-2-2-2-2-2-2--2-2-2-2-2-2-2-2-2-2-2-2--|

main riff
|-----------------------------------|
|-----------------------------------|
|-11-x-11-x-9-x-9-x-4-x-4-x-4-x-4-x-|
|-11-x-11-x-9-x-9-x-4-x-4-x-4-x-4-x-|
|--9-x--9-x-7-x-7-x-2-x-2-x-2-x-2-x-|
|-----------------------------------|

joins main riff
|---------------|
|---------------|
|---------------|
|-4--2--1h2p1---|
|-------------4-|
|---------------|

"..you're gonna be bummed..." part

|---------------|
|---------------|
|-------4-4-4-4-|
|-4--2--4-4-4-4-|
|-4--2--2-2-2-2-|
|-2--0----------|

lyrics

i saw a little kid 
as he walked around
he picked a candy bar up
off the ground
he chowed about a half 
then his face turned blue
turned out that candy bar was doggy-doo

don't pick it up i say
unless you can throw it away 
don't pick it up i say
you're gonna be bummed that you went that way

you're out there makin' bacon
no scrutiny
you mess around too much 
and you got vd
you know you never think 
and you're sore today
you're gonna take it back to california

don't pick it up i say 
unless you can throw it away
don't pick it up i say
you're gonna be bummed that you went that way

my friend was kinda hurtin' 
for a girl to try
he saw one that looked like pat
on saturday night live
it had a pair of thingies
but a mustache too
not clearly male nor female 
so now what to do
 
don't pick it up i say
unless you can throw it away 
don't pick it up i say 
you're gonna be bummed that you went that way