Offspring-Feelings

: - let ring 
pm - palm mute

intro - (sounds close)
|--------------------------------------------------------------------
|--------------------------------------------------------------------
|-5--5-5-5--5-5-5--5--5-5-5--5-5-5--5--5-5-5--5-5-5--7--7-7-7--7-7-7-
|-7--7-7-7--7-7-7--6--6-6-6--6-6-6--5--5-5-5--5-5-5--4--4-4-4--4-4-4-
|--------------------------------------------------------------------
|--------------------------------------------------------------------

 ----------------------------------|
 ----------------------------------|
 -7--7-7-7--7-7-7--7--7-7-7--7-7-7-|
 -3--3-3-3--3-3-3--5--5-5-5--5-5-5-|
 ----------------------------------|
 ----------------------------------|

pre verse
|------------------------------------------|
|------------------------------------------|
|------9-9-9-9---9-9-9-9---9-9-9-9-9-9-9-9-|
|-7:---9-9-9-9---9-9-9-9---9-9-9-9-9-9-9-9-|
|-7:---7-7-7-7---7-7-7-7---7-7-7-7-7-7-7-7-|
|-5:---------------------------------------|

verse
pm___________________________________________________________________
|--------------------------------------------------------------------
|--------------------------------------------------------------------
|--------------------------------------------------------------------
|--------------------------------------------------------------------
|-3--3-3-3--3-3-3--3--3-3-3--3-3-3--3--3-3-3--3-3-3--3--3-3-3--3-3-3-
|-5--5-5-5--5-5-5--4--4-4-4--4-4-4--3--3-3-3--3-3-3--2--2-2-2--2-2-2-

____________________________________|
 -----------------------------------|
 -----------------------------------|
 -----------------------------------|
 -----------------------------------|
 -3--3-3-3--3-3-3--5--5-5-5--5-5-5--|
 -1--1-1-1--1-1-1--3--3-3-3--3-3-3--|

chorus - at the end, play the first line slower and slower and finish with
         the last chord

|-------------------------------------------------------------------------
|-------------------------------------------------------------------------
|-----------------5-5-5-5-5-5-5-5-7-7-7-7-7-7-9-9-9-9-9-9-----------------
|-3-3-3-3-3-3-3-3-5-5-5-5-5-5-5-5-7-7-7-7-7-7-9-9-9-9-9-9-7-7-7-7-7-7-7-7-
|-3-3-3-3-3-3-3-3-3-3-3-3-3-3-3-3-5-5-5-5-5-5-7-7-7-7-7-7-7-7-7-7-7-7-7-7-
|-1-1-1-1-1-1-1-1-----------------------------------------5-5-5-5-5-5-5-5-

 -------------------------------------------------------------------------|
 -------------------------------------------------------------------------|
 -----------------5-5-5-5-5-5-5-5-7-7-7-7-7-7-4-4-4-4-4-4-----------------|
 -3-3-3-3-3-3-3-3-5-5-5-5-5-5-5-5-7-7-7-7-7-7-4-4-4-4-4-4-2-2-2-2-2-2-2-2-|
 -3-3-3-3-3-3-3-3-3-3-3-3-3-3-3-3-5-5-5-5-5-5-2-2-2-2-2-2-2-2-2-2-2-2-2-2-|
 -1-1-1-1-1-1-1-1-----------------------------------------0-0-0-0-0-0-0-0-|

lyrics

feelings nothing more than feelings, trying to forget my feelings of hate
imagine beating on your face, trying to forget my feelings of hate
feelings for all my life i'll feel it 
i wish i'd never met you you'll make me sick again
feelings, oh oh feelings of hate on my mind
feelings, feelings like i never liked you 
feelings like i want to kill you, live in my heart
feelings, feelings like i wanna deck you 
feelings like i've got to get you out of my life
feelings, oh oh feelings that hate's in my eyes
feelings, oh oh feelings you're not very nice