The Offspring-Gone away

/ \ - slide
: - let ring
h - hammer on
* - repeat 7 or 8 times

main riff

guitar 1
|-------------------------------------------------------------------------|
|-------------------------------------------------------------------------|
|-10-10-10-10-10-10-10-10-----------------8-8-8-8-8-8-8-8-----------------|
|-10-10-10-10-10-10-10-10-6-6-6-6-6-6-6-6-8-8-8-8-8-8-8-8-8-8-8-8-8-8-8-8-|
|--8--8--8--8--8--8--8--8-6-6-6-6-6-6-6-6-6-6-6-6-6-6-6-6-8-8-8-8-8-8-8-8-|
|-------------------------4-4-4-4-4-4-4-4-----------------6-6-6-6-6-6-6-6-|

guitar 2 joins with
|-8-8-8-8-8-8-8-8-8-8-8-8-8-8-8-8-6-6-6-6-6-6-6-6-6-6-6-6-6-6-6-6-|
|-6-6-6-6-6-6-6-6-9-9-9-9-9-9-9-9-4-4-4-4-4-4-4-4-6-6-6-6-6-6-6-6-|
|-----------------------------------------------------------------|
|-----------------------------------------------------------------|
|-----------------------------------------------------------------|
|-----------------------------------------------------------------|

guitar 2 plays
|------------------------------------------------|
|------------------------------------------------|
|--------10:--------8:--------8--8/10--3-3-5-----|
|-8h10--------5h6-------3h5------------------3:--|
|------8----------6---------6--------------------|
|------------------------------------------------|

guitar 1 plays this chord behind the riff above

|-----|
|-----|
|-----|
|-3:--|
|-3:--|
|-1:--|

"i reach to the sky....."
|-----8----------6-------------6-------------\4-3-------|
|---6----------4-------------4---------6---4------4-4\6-|
|-5----------5-------------3-------------5--------------|
|-------------------------------------------------------|
|-------------------------------------------------------|
|-------------------------------------------------------|

Clean part
|-1-----1-4-----4-6--6--6-6-6--6--6-6-1--1--1-1-4--4--4-4-6--6--6-6--6**-|
|-1-----1-4-----4-8--8--8-8-6--6--6-6-1--1--1-1-4--4--4-4-8--8--8-8--6**-|
|-2-----2-5-----5-8--8--8-8-7--7--7-7-2--2--2-2-5--5--5-5-8--8--8-8--7**-|
|-3-----3-6-----6-8--8--8-8-8--8--8-8-3--3--3-3-6--6--6-6-8--8--8-8--8**-|
|-3-----3-6-----6-6--6--6-6-8--8--8-8-3--3--3-3-6--6--6-6-6--6--6-6--8**-|
|-1-----1-4-----4-----------6--6--6-6-1--1--1-1-4--4--4-4------------6**-|

final note
|-----|
|-----|
|-----|
|-3:--|
|-3:--|
|-1:--|

lyrics
Maybe in another life
I could find you there
Pulled away before your time
I can't deal it's so unfair

And it feels
And it feels like
Heaven's so far away
And it feels
Yeah it feels like
The world has grown cold
Now that you've gone away

Leaving flowers on your grave
Show that I still care
Black roses and Hail Mary's
Can't bring back what's taken from me
I reach to the sky
And call out your name
And if I could trade
I would

And it feels
And it feels like
Heaven's so far away
And it stings
Yeah it stings now
The world is so cold
Now that you've gone away

Gone away
Gone away
Yeah yeah yeah yeah
Yeah ooo
Yeah ooo ooo ooo ooo
Ohhhh yeah

I said yeah so
Wo
Yeah-eah-eah-eah
Yeah-eah-eah-eah
Ooooohhh
Ooo

I reach to the sky
And call out your name
Oh please let me trade
I would

And it feels
And it feels like
Heaven's so far away
And it feels
Yeah it feels like
The world has grown cold
Now that you've gone away

Gone away
Gone away
Yeah yeah yeah yeah
Yeah ooo
Yeah ooo ooo ooo ooo
Ohhhh yeah
Yeah ooo
Yeah ooo ooo ooo ooo
Ohhhh yeah