Offspring-Gotta Get Away
 
  Bass Intro
G ---------------------------------------------------------------------------|
D ---------------------------------------------------------------------------|
A -3-4-5-5-5-5-5-5-5-5-5---7-----7-7-------5-5-5-5-5-5-5-5-5---7-----7-7-----|
E -----------------------0---0-0-----0-0-0-------------------0---0-0-----0-0-|
 
  Guitar, Light Distortion
E -10-10----3-3-3--0------10-10----3-3-5--0----|
B ----------3-3-2--0---------------3-3-3--0----|
G ---------------------------------------------|
D ---------------------------------------------|
A ---------------------------------------------|
E ---------------------------------------------|
 
  Guitar, Heavy Distortion
E ---------------------------------------------------------------------------|
B ---------------------------------------------------------------------------|
G -9-9s7-7--9-9s7-7--9-9s12-12--9-9s12-12--9-9s14-14--9-9s14-14---9-10-9-10-9|
D -9-9s7-7--9-9s7-7--9-9s12-12--9-9s12-12--9-9s14-14--9-9s14-14---9-10-9-10-9|
A -7-7s5-5--7-7s5-5--7-7s10-10--7-7s10-10--7-7s12-12--7-7s12-12---7-8--7-8--7|
E ---------------------------------------------------------------------------|
 
  Verse
E ------------------------------------------------------------------|
B ------------------------------------------------------------------|
G -----7-7-----7-7------9-9-----9-9-----12-12-----14---9-10-9-10-9--|
D -----7-7-----7-7------9-9-----9-9-----12-12-----14---9-10-9-10-9--|
A -----5-5-----5-5------7-7-----7-7-----10-10-----12---7-8--7-8--7--|
E -0-0-----0-0------0-0-----0-0-----0-0-------0-0-------------------|
 
  Chorus
E ----------------------------------------|
B ----------------------------------------|
G -9-9-9-------------------------7-7-7-7--|
D -9-9-9-9s10-10-10-10--5-5-5-5--7-7-7-7--|
A -7-7-7-9s10-10-10-10--5-5-5-5--5-5-5-5--|
E -------7s8--8--8--8---3-3-3-3-----------|