Offspring-Have You Ever 
                          
          TEMPO = 148 
          Part 1: 
                  P.M.-------|      P.M.-------| 
          E|-----------------|-----------------| 
          B|-----------------|-----------------| 
          G|-9---------------|-9---------------|    Repeat 2 times 
          D|-9---------------|-9---------------| 
          A|-7---------------|-7---------------| 
          E|-----0-0-0-0-0-0-|-----0-0-0-0-0-0-| 
 
          E|-----------------|-----------------| 
          B|-----------------|-----------------| 
          G|-9-9-9-9-9-9-9-9-|-9-9-9-9-9-9-9-9-| 
          D|-9-9-9-9-9-9-9-9-|-9-9-9-9-9-9-9-9-| 
          A|-7-7-7-7-7-7-7-7-|-7-7-7-7-7-7-7-7-| 
          E|-----------------|-----------------| 
 
          TEMPO = 184 
          Part 2: 
          E|-----------------|-----------------| 
          B|-----------------|-----------------| 
          G|-9-9---9---9-9-9-|-9-9---9---9-9-9\| 
          D|-9-9---9---9-9-9-|-9-9---9---9-9-9\| 
          A|-7-7---7---7-7-7-|-7-7---7---7-7-7\| 
          E|-----------------|-----------------| 
 
          E|-----------------|-----------------| 
          B|-----------------|-----------------| 
          G|-----------------|-7-7---7---7-7-7-| 
          D|-5-5---5---5-5-5-|-7-7---7---7-7-7-| 
          A|-5-5---5---5-5-5-|-5-5---5---5-5-5-| 
          E|-3-3---3---3-3-3-|-----------------| 
 
          Play Part 2 again 
 
          Part 3: 
             P.M.-----------| 
          E|-----------------|-----------------| 
          B|-----------------|-----------------| 
          G|-----------------|-----------------| 
          D|-----------------|-----------------| 
          A|---10--9---10----|---10--9---10----| 
          E|-0---------------|-0---------------| 
 
          E|-----------------|-----------------| 
          B|-----------------|-----------------| 
          G|-----------------|-----------------| 
          D|-----------------|-----------------| 
          A|---10--9---10----|---10--9---10----| 
          E|-----------------|-----------------| 
 
           P.M.           P.M.--| 
          E|-----------------|-----------------| 
          B|-----------------|-----------------| 
          G|---11--9---11----|---11--9---11----| 
          D|-0-0---0---0---0-|-0-0---0---0---7-| 
          A|-----------------|---------------7-| 
          E|-----------------|---------------5-| 
 
          E|-----------------|-----------------| 
          B|-----------------|-----------------| 
          G|-----------------|-----------------| 
          D|-7-----7---10109-|-9---9-9---9-9-9-| 
          A|-7-----7---10109-|-9---9-9---9-9-9-| 
          E|-5-----5---8-8-7-|-7---7-7---7-7-7-| 
 
          Play Part 3 Again 
 
          Part 4: 
          E|-----------------|-----------------| 
          B|-----------------|-----------------| 
          G|-9-9---9---9-9-9\|-5-5---5---5-5-5-| 
          D|-9-9---9---9-9-9\|-5-5---5---5-5-5-| 
          A|-7-7---7---7-7-7\|-3-3---3---3-3-3-| 
          E|-----------------|-----------------| 
 
          E|-----------------|-----------------| 
          B|-----------------|-----------------| 
          G|-----------------|-7-7---7---7-7-7-| 
          D|-5-5---5---5-5-5-|-7-7---7---7-7-7-| 
          A|-5-5---5---5-5-5-|-5-5---5---5-5-5-| 
          E|-3-3---3---3-3-3-|-----------------| 
 
          Play Part 4, 2 3/4 more times 
 
          Part 5: 
          E|-----------------|-----------------| 
          B|-----------------|-----------------| 
          G|-7-7---7---7-7-7-|-7-7-7-7-7-7-7-7-| 
          D|-7-7---7---7-7-7-|-7-7-7-7-7-7-7-7-| 
          A|-5-5---5---5-5-5-|-5-5-5-5-5-5-5-5-| 
          E|-----------------|-----------------| 
 
          Play Part 3, 2 times 
 
          Play Part 4, 3 3/4 times 
 
          Part 6: 
          E|-----------------| 
          B|-----------------| 
          G|-7-7---7---7-7-7-| 
          D|-7-7---7---7-7-7-| 
          A|-5-5---5---5-5-5-| 
          E|-----------------| 
 
          Part 7: 
          E|-----------------| 
          B|-----------------| 
          G|-9-9---9---9-9-9-| 
          D|-x-x---x---x-x-x-| 
          A|-7-7---7---7-7-7-| 
          E|-----------------| 
 
          Play Part 7, 15 more times 
 
          TEMPO = 148 
          Part 8: 
          E|-0---------------| 
          B|-0---------------| 
          G|-x---------------| 
          D|-2---------------| 
          A|-2---------------| 
          E|-0---------------| 
 
          Hold chord for 12 bars then rest for 4 bars 
 
          Play Part 1 
 
          TEMPO = 136 
          Part 9: 
          E|-----------------| 
          B|-----------------| 
          G|-9\--------------| 
          D|-9\--------------| 
          A|-7\--------------| 
          E|-----------------| 
 
          Rest 7 bars 
 
          Part 10: 
          E|-----------------|-----------------| 
          B|-----------------|-----------------| 
          G|-9-9-9-----------|-7-7-7---9-9-9---| 
          D|-9-9-9---5-5-5---|-7-7-7---9-9-9---| 
          A|-7-7-7---5-5-5---|-5-5-5---7-7-7---| 
          E|---------3-3-3---|-----------------| 
 
          E|-----------------|-----------------| 
          B|-----------------|-----------------| 
          G|-5-5-5---7-7-----|-------------9---| 
          D|-5-5-5---7-7-----|-------------9---| 
          A|-3-3-3---5-5-----|---------2/--7---| 
          E|-------------0-2-|-3---2-0-0-------| 
 
          Play Part 10, 5 More Times 
 
          E|-----------------|-----------------| 
          B|-----------------|-----------------| 
          G|-5-5-5---7-7-----|-------------9\--| 
          D|-5-5-5---7-7-----|-------------9\--| 
          A|-3-3-3---5-5-----|---------2/--7\--| 
          E|-------------0-2-|-3---2-0-0-------| 
 
          E|-----------------| 
          B|-----------------| 
          G|-5-5-5-5-7-------| 
          D|-5-5-5-5-7-------| 
          A|-3-3-3-3-5-------| 
          E|-----------------| 
 
          Hold last chord for a couple of bars