Offspring-Kick Him When He's Down

intro 
(listen to the song to get the right hand picking)
(still not sure about these first chords, but sound OK)
--------------------------------------------------------
--------------------------------------------------------
-11-----9-----12----9-----9-9-9-8-8-8-7-7-7-6-6-6-5-5-5-
--9-----7-----14----7-----9-9-9-8-8-8-7-7-7-6-6-6-5-5-5-
-11-----9-----12----9-----7-7-7-6-6-6-5-5-5-4-4-4-3-3-3-
--------------------------------------------------------

main riff
-----------------------------------------
-10---8-----3----------------------------
-11---9-----4---------3-----3-----3------
-11---9-----4---------4-----4-----4------
--9---7-----2---------4-----4-----4------
------------------2-2-2-2-2-2-2-2-2-2-2--

verse
----------------------------------------------------------
-10---8-----3----------------------------------------------
-11---9-----4----------------------------------------------
-11---9-----4----------------4-------------4-------------4-
--9---7-----2----------------4-------------4-------------4-
-----------------2-2-2-2-2-2-2-2-2-2-2-2-2-2-2-2-2-2-2-2-2-

---------------------------------------
---------------------------------------
----4----7---9---11--------------------
-2--4----7---9---11--------------------
-2--2----5---7----9--------------------
-0-------------------------------------

chorus
(repeat 3 times)
---------------------------------------
---------------------------------------
---------------------------------------
---------------5----------7------------
-----4---------3----------5--------2---
-0-0-2-----0-0------0-0-------0-0--0---

on 3rd time end with

---------------------------------------
---------------------------------------
---------------------------------------
-2---2-2-2----2-2-2----2-2-2----2-2-2--
-2---2-2-2----2-2-2----2-2-2----2-2-2--
-0---0-0-0----0-0-0----0-0-0----0-0-0--

rhythm 1
----------------------------------------
----------------------------------------
-11--11-11-11--14----7--7-7-7-----------
-11--11-11-11--14----7--7-7-7---7-------
--9---9--9--9--12----5--5-5-5---7-------
--------------------------------5-------

----------------------------------------
----------------------------------------
-9--11--13---7--9--11--13--14--16-------
-9--11--13---5--7---9--11--12--14-------
-7---9--11------------------------------
----------------------------------------