The Offspring-Leave It Behind

h - hammer on
: - let ring 
pm - palm mute 
x - scratch
* - repeat 7 or 8 times

intro - 2 guitars 

guitar 1
|----0-2-2h3-2-0----0-2-2h3-2-0----0-2-2h3-2-0----0-2-2h3-2-0--|
|--------------------------------------------------------------|
|--------------------------------------------------------------|
|--------------------------------------------------------------|
|--------------------------------------------------------------|
|-0:-------------0:-------------0:-------------0:--------------|
                 >              >              >
wait till guitar 1 plays the piece before the second arrow,
then play on

guitar 2
|                               |------------------------------|
|                               |------------------------------|
|          wait                 |---9----9--9-9---9----9--9-9--|
|                               |-2-9-9--9--9-9-2-9-9--9--9-9--|
|                               |-2-7-9--7--7-7-2-7-9--7--7-7--|
|                               |-0---7---------0---7----------|

verse
pm
|---------------------------------------------------------------------------|
|---------------------------------------------------------------------------|
|-9x-9x-9x-9x-7x-7x-9x-9x--9x-9x-9x-9x-7x-7x--------9x-9x-9x-9x-7x-7x-9x-9x-|
|-9x-9x-9x-9x-7x-7x-9x-9x--9x-9x-9x-9x-7x-7x-9x-9x--9x-9x-9x-9x-7x-7x-9x-9x-|
|-7x-7x-7x-7x-5x-5x-7x-7x--7x-7x-7x-7x-5x-5x-9x-9x--7x-7x-7x-7x-5x-5x-7x-7x-|
|--------------------------------------------7x-7x--------------------------|

chorus
|------------------------|
|------------------------|
|-5-----7-9*--5-----7-9--|
|-5-3-5-7-9*--5-3-5-7-9--|
|-3-3-5-5-7*--3-3-5-5-7--|
|---1-3---------1-3------|

bridge
|-------------------------------------------------|
|-------------------------------------------------|
|-------------7-7-7-7-7-7-9-9-9-9-9-9-5-5-5-5-5-5-|
|-5-5-5-5-5-5-7-7-7-7-7-7-9-9-9-9-9-9-5-5-5-5-5-5-|
|-5-5-5-5-5-5-5-5-5-5-5-5-7-7-7-7-7-7-3-3-3-3-3-3-|
|-3-3-3-3-3-3-------------------------------------|

|-------------------------------------------------|
|-------------------------------------------------|
|-------------7-7-7-7-7-7-9-9-9-9-9-9-5-5-5-7-7-7-|
|-5-5-5-5-5-5-7-7-7-7-7-7-9-9-9-9-9-9-5-5-5-7-7-7-|
|-5-5-5-5-5-5-5-5-5-5-5-5-7-7-7-7-7-7-3-3-3-5-5-5-|
|-3-3-3-3-3-3-------------------------------------|

end note
|-----|
|-----|
|--9--|
|--9--|
|--7--|
|-----|

lyrics

rage burns can't push it aside now
can't forgive this grudge is alive now
all the rage eats you up inside

can you leave it behind

what a surprise
you're fucked with again yeah
it's a way of life you need to get over 
all the rage just eats you alive

can you leave it behind

i don't know where it'll end 
the sun has set 
and i can't be friends
i don't know if i can forgive
the day is long 
but you were so dead wrong