Offspring-Pay The Man

/ \ - slide
b - bend
: - let ring

intro - played with flanger
|-7---8--12--11--5--5/7--7-|
|-9--10--14--13--7--7/9--7-|
|-9--10--14--13--7--7/9--8-|
|-9--10--14--13--7--7/9--9-|
|-7---8--12--11--5--5/7--9-|
|------------------------7-|

|-7---8--12--11--5--12/14--14-|
|-9--10--14--13--7--14/16--16-|
|-9--10--14--13--7--14/16--16-|
|-9--10--14--13--7--14/16--16-|
|-7---8--12--11--5--12/14--14-|
|-----------------------------|

|-7-- 8--12--11--5--5/7--7-|
|-9--10--14--13--7--7/9--7-|
|-9--10--14--13--7--7/9--8-|
|-9--10--14--13--7--7/9--9-|
|-7-- 8--12--11--5--5/7--9-|
|------------------------7-|

|-5--5--5--5--7-|
|-5--5--5--5--7-|
|-6--6--6--6--8-|
|-7--7--7--7--9-|
|-7--7--7--7--9-|
|-5--5--5--5--7-|

|-5/7-7-7-7-7-5/7-7-7-7-7--8--8\7-7-7-7-5/7-7-7-7-7-|
|-7/9-9-9-9-9-7/9-9-9-9-9-10-10\9-9-9-9-7/9-9-9-9-9-|
|-7/9-9-9-9-9-7/9-9-9-9-9-10-10\9-9-9-9-7/9-9-9-9-9-|
|-7/9-9-9-9-9-7/9-9-9-9-9-10-10\9-9-9-9-7/9-9-9-9-9-|
|-5/7-7-7-7-7-5/7-7-7-7-7--8--8\7-7-7-7-5/7-7-7-7-7-|
|---------------------------------------------------|

riff

|-10-8-7-5-4--4-5/7-5-4-2-0-/-10-8-7-5-4--4-5/7-5-4-2-0--0-2/4-4-4-4/5/7-
|------------------------------------------------------------------------
|------------------------------------------------------------------------
|------------------------------------------------------------------------
|------------------------------------------------------------------------
|------------------------------------------------------------------------

 -7-5\4--0-2/4-4-4-4/5/7-|
 ------------------------|
 ------------------------|
 ------------------------|
 ------------------------|
 ------------------------|

|-7-7-7-7-7-7/10-10-12-12b-12-10--10/12\10\9-7-7/9\7-5-4-4-5-4--
|---------------------------------------------------------------
|---------------------------------------------------------------
|---------------------------------------------------------------
|---------------------------------------------------------------
|---------------------------------------------------------------

 -7-7-7-7-7-7/10-10-12-12b-12-10--10/12\10\9-12-12-12-12-12-12-12-12-
 --------------------------------------------------------------------
 --------------------------------------------------------------------
 --------------------------------------------------------------------
 --------------------------------------------------------------------
 --------------------------------------------------------------------

 -12/14/16-16-16-16\14\12-12-13-12--12/14/16-16-16-16\14\12-12-13-12--
 ---------------------------------------------------------------------
 ---------------------------------------------------------------------
 ---------------------------------------------------------------------
 ---------------------------------------------------------------------
 ---------------------------------------------------------------------

 -12/14/16-16-16-16\14\12-12-13-12--12/14/16-16-16-16\14\12-12-13-12--
 ---------------------------------------------------------------------
 ---------------------------------------------------------------------
 ---------------------------------------------------------------------
 ---------------------------------------------------------------------
 ---------------------------------------------------------------------

 -10-8-7-5-|
 ----------|
 ----------|
 ----------|
 ----------|
 ----------|

|-----------------------------|
|-----------------------------|
|----------10--10-10-10-------|
|-7--7-7-7-10--10-10-10-2:----|
|-7--7-7-7--8---8--8--8-2:----|
|-5--5-5-5--------------0:----|

riff - played clean/distorted also played for verse with palm mute
|---------------------------------------------------------|
|---------------------------------------------------------|
|-7/9-9-9-9-9-9-7/9-9-9\5-5-5-5-5-7/9-9-9-9-9-9-7-7/14\12-|
|-7/9-9-9-9-9-9-7/9-9-9\5-5-5-5-5-7/9-9-9-9-9-9-7-7/14\12-|
|-5/7-7-7-7-7-7-5/7-7-7\3-3-3-3-3-5/7-7-7-7-7-7-5-5/12\10-|
|---------------------------------------------------------|

chorus
|----------------------------------|
|----------------------------------|
|-7--7-7-7-5--5-5-5----------------|
|-7--7-7-7-5--5-5-5-2--2-2-2-2-2-2-|
|-5--5-5-5-3--3-3-3-2--2-2-2-2-2-2-|
|-------------------0--0-0-0-0-0-0-|

outro
|---------------------------------------------------------|
|-9--9-9-9--7--7-7-7----------------9--9-9-9--7--7-7-7----|
|-9--9-9-9--7--7-7-7--2--2-2-2-2-2--9--9-9-9--7--7-7-7-2:-|
|-9--9-9-9--7--7-7-7--2--2-2-2-2-2--9--9-9-9--7--7-7-7-2:-|
|-7--7-7-7--5--5-5-5--2--2-2-2-2-2--7--7-7-7--5--5-5-5-2:-|
|---------------------0--0-0-0-0-0---------------------0:-|

lyrics

see the way the wind blows lives are intertwined
watch the way the world goes the man deals out our plight
jester is the corner laughs without a sound
jester in the corner malady abounds in our souls
see the way the sun sets twilight of this life 
the man is making little bets playing with our lives
all that i believe now anything is possible a simple explanation
for the evil in this world and in our souls in our souls
come down to sorry and sable it's always the man always keeping you down
bow down cause i see it before me shadow and light
that always keeps you running
shut up you talk to much, pay the man, shut up you talk to much
look at you and your struggle for freedom 
but you ain't nothing we all pay the man for living 
wouldn't it be nice for a change now to be unchained 
my life is for me but this is life
pay the man, shut up you talk to much, pay the man