The Offspring-She's Got Issues

pm - palm mute
/ \ - slide
: - let ring

intro
     pm__________|
|-----------------------|
|-----------------------|
|-----------------------|
|-9-9-9-9-9-9-9-9-9-9-9-|
|-9-9-9-9-9-9-9-9-9-9-9-|
|-7-7-7-7-7-7-7-7-7-7-7-|

pre verse/verse - using palm mute during the verse
|---------------------------------------|
|---------------------------------------|
|-9-9----9-------------6-7-7--6-7-9-----|
|-9-9----9---9-9---9-9-6-7-7--6-7-9-7-7-|
|-7-7----7---9-9---9-9-4-5-5--4-5-7-7-7-|
|------0---0-7-7---7-7--------------5-5-|

riff
|-------------------------------------------------------------------------------|
|----------9------------------7------------------7------------------5-----9-----|
|----9--------9---------8--------8---------7--------7---------6--------6-----9--|
|-9-----9------------9-----9------------7-----7------------7-----7--------------|
|-------------------------------------------------------------------------------|
|-------------------------------------------------------------------------------|

chorus
|-----------------------------------------------------------------|
|-----------------------------------------------------------------|
|-9-9-9-8-9-9-9-----------------6-7-7-7-7-7-7-7-7-----------------|
|-9-9-9-8-9-9-9-8-9-9-9-8-9-9-9-6-7-7-7-7-7-7-7-7-7-7-7-7-7-7-7-7-|
|-7-7-7-6-7-7-7-8-9-9-9-8-9-9-9-4-5-5-5-5-5-5-5-5-7-7-7-7-7-7-7-7-|
|---------------6-7-7-7-6-7-7-7-------------------5-5-5-5-5-5-5-5-|

bridge
|-----------------------------------------------------------------
|-----------------------------------------------------------------
|-5-5-5-5-5-5-5-5---------------------------------9-9-9-9-9-9-9-9-
|-5-5-5-5-5-5-5-5-5-5-5-5-5-5-5-5-7-7-7-7-7-7-7-7-9-9-9-9-9-9-9-9-
|-3-3-3-3-3-3-3-3-5-5-5-5-5-5-5-5-7-7-7-7-7-7-7-7-7-7-7-7-7-7-7-7-
|-----------------3-3-3-3-3-3-3-3-5-5-5-5-5-5-5-5-----------------

                                 pm______________|
 ---------------------------------------------------------|
 ---------------------------------------------------------|
 -5-5-5-5-5-5-5-5-----------------------------------------|
 -5-5-5-5-5-5-5-5-5-5-5-5-5-5-5-5-9-9-9-9-9-9-9-9-9-9-9-9-|
 -3-3-3-3-3-3-3-3-5-5-5-5-5-5-5-5-9-9-9-9-9-9-9-9-9-9-9-9-|
 -----------------3-3-3-3-3-3-3-3-7-7-7-7-7-7-7-7-7-7-7-7-|

outro
|------|
|------|
|-9:---|
|-9:---|
|-7:---|
|------|

lyrics
i'm seeing this girl and she just might be out of her mind
well she's got baggage and it's all the emotional kind
she talks about closure and that validation bit
i don't mean to be insensitive but i really hate that shit

oh man she's got issuses and i'm gonna pay
she thinks she's the victim yeah

now i know she'll feel abandoned if i don't stay over late
and i know she's afraid to commit but it's only our second date

oh man she's got issues and i'm gonna pay
she thinks she's the victim but she takes it all out on me

i don't know why you're messed up
i don't know why your whole life is a chore
just do me a favor and check your baggage at the door

now she talks about her ex nonstop, but i don't mind
but when she calls out his name in bed that's where i draw the line
you told me a hundred times how your father left and he's gone
but i wish you wouldn't call me daddy when we're gettin' it on

if you think i'm controlling then why do you follow me around
if you're not co-dependent then why do you let others drag you down