Offspring-The End Of The Line

pm - palm mute
: - let ring

intro
|-------------------------------------------------------------|
|-------------------------------------------------------------|
|-------------------------------9-9-9-9-9-9-6-6-6-6-6-6-6-6-6-|
|-4-4-2-4---4-4-2-4---4-4-2-4---9-9-9-9-9-9-6-6-6-6-6-6-6-6-6-|
|-4-4-2-4---4-4-2-4---4-4-2-4---7-7-7-7-7-7-4-4-4-4-4-4-4-4-4-|
|-2-2-0-2---2-2-0-2---2-2-0-2---------------------------------|

verse
pm___|    |____________________|    |____________________|    |______
|--------------------------------------------------------------------
|--------------------------------------------------------------------
|----------7-7-7-4-4-4-4-4-----------7-7-7-9-9-9-9-9-----------7-7-7-
|-4-4-2-4--7-7-7-4-4-4-4-4--4-4-2-4--7-7-7-9-9-9-9-9--4-4-2-4--7-7-7-
|-4-4-2-4--5-5-5-2-2-2-2-2--4-4-2-4--5-5-5-7-7-7-7-7--4-4-2-4--5-5-5-
|-2-2-0-2-------------------2-2-0-2-------------------2-2-0-2--------

 __________|
 ------------------------------------------|
 ------------------------------------------|
 -4-4-4-4-4--9-9-9-9-9-9-6-6-6-6-6-6-6-6-6-|
 -4-4-4-4-4--9-9-9-9-9-9-6-6-6-6-6-6-6-6-6-|
 -2-2-2-2-2--7-7-7-7-7-7-4-4-4-4-4-4-4-4-4-|
 ------------------------------------------|

chorus - this riff is also used in the bridge but with palm muting
|--------------------------------------------------------------------------
|--------------------------------------------------------------------------
|-------------------------9-9-9-9-9-9-4-4-4-4-4-4--------------------------
|-4-4-4-4-4-4-7-7-7-7-7-7-9-9-9-9-9-9-4-4-4-4-4-4--4-4-4-4-4-4-7-7-7-7-7-7-
|-4-4-4-4-4-4-7-7-7-7-7-7-7-7-7-7-7-7-2-2-2-2-2-2--4-4-4-4-4-4-7-7-7-7-7-7-
|-2-2-2-2-2-2-5-5-5-5-5-5--------------------------2-2-2-2-2-2-5-5-5-5-5-5-

 -------------------------|
 -------------------------|
 -9-9-9-9-9-9-6-6-6-6-6-6-|
 -9-9-9-9-9-9-6-6-6-6-6-6-|
 -7-7-7-7-7-7-4-4-4-4-4-4-|
 -------------------------|

outro
|------|
|------|
|------|
|-4:---|
|-4:---|
|-2:---|

lyrics

when the siren's flash is gone and we're left to carry on
all the memories are too few
when the pastor's music plays and that casket rolls away
i could live again if you just stay alive for me
please stay now, you've left me here alone - it's the end of the line
please stay i can't make it on my own - it's the end of the line
make it one my own - it's the end of the line
now that you are dead and gone and i'm left to carry on
i could never smile cause you won't stay alive for me
finally, your final resting day is without me
i weep, and think of brighter days what about me?
you can't take back, the one mistake that still lives on after life it takes
in that one day, that changed our lives and bitter memories are left behind