Offspring-Walla Walla

/ \ - slide

riff
  F5             C5             G5             C5             F5
|------------------------------------------------------------------------
|------------------------------------------------------------------------
|------------------------------------------------------------------------
|-3-3--3-3-3-2-0------------------------------------------0-2-3-3--3-5-3-
|----------------3-3--3-3-3-2-0------------0-2-3-3--3-3-3----------------
|-------------------------------3-3--3-3-3-------------------------------

      C5             G5             C5
 ----------------------------------------------|
 ----------------------------------------------|
 ----------------------------------------------|
 -2-0------------------------------------------|
 -----3-3--3-3-3-2-0------------0-2-3--3--3--3-|
 --------------------3-3--3-3-3----------------|

chorus
|----------------------------------------------------------------------
|----------------------------------------------------------------------
|-5--5--5-6-7-7-7-7-7-7-7-7-9--10-10-10-10-10-10-10-10-5-5-5-5-5-5-5-5-
|-5--5--5-6-7-7-7-7-7-7-7-7-9--10-10-10-10-10-10-10-10-5-5-5-5-5-5-5-5-
|-3--3--3-4-5-5-5-5-5-5-5-5-7--8--8--8--8--8--8--8--8--3-3-3-3-3-3-3-3-
|----------------------------------------------------------------------

 ---------------------------------------------------------------------
 ---------------------------------------------------------------------
 ------------------8-8-8-8-8-8-8-8-10-11-11-11-11-11-11-11-11-6-6-6-6-
 -6-6-6-6-6-6-6-6--8-8-8-8-8-8-8-8-10-11-11-11-11-11-11-11-11-6-6-6-6-
 -6-6-6-6-6-6-6-6--6-6-6-6-6-6-6-6--8--9--9--9--9--9--9--9--9-4-4-4-4-
 -4-4-4-4-4-4-4-4-----------------------------------------------------

 -------------------------|
 -------------------------|
 -5-5-5-5-----------------|
 -5-5-5-5-5-5-5-5-5-5-5-5-|
 -3-3-3-3-5-5-5-5-5-5-5-5-|
 ---------3-3-3-3-3-3-3-3-|

lyrics

one and two and three and four and...
goodbye my friend you've messed up again
you're going to prison you're off to the pen
you've gotten off easy so many times
i guess no one told you how to get a life

the judge wasn't lenient like he was before
you got three to five and a kick out the door
the public defender really did try
too little too late you didn't get a life

hey in walla, i'll see you in walla walla
slap on the wrist well not this time
hey in walla, i'll see you in walla walla
folsom prison is the destination

in the scheme of life we're all just brothers
rehabilitate with all the others oh
well i'll see ya

that car looks so tempting so easy to drive
just like that apartment that you burglarized
you started to run but didn't get far
cause under your arm, was a vcr

i'm innocent, i didn't do it, i didn't do nothing man
this is bullshit, he just gave it to me, it was a present

ho ho not this time my friend you'll be in lockdown by ten
i'm afraid you can't talk your way out of this one son
now four walls are your 24-hour-a-day constant companions
have a nice life!