The Offspring-Way Down The Line

Intro riff: 
|------------------------------------------/-|
|------------------------------------------/-|
|-7:-----------7:-----------7:----------7:-/-|
|-7:----5:-----7:----5---7--7:----7:----7:-/-|
|-5:----3:-----5:----5---7--5:----7:----5:-/-|
|-------3:-----------3---5--------5:-------/-| 
then slide power chord index finger up to the 10th fret slowly.

Verse riff: 
|---------------------------------|
|---------------------------------|
|---------------------------------|
|-12--12\10--12X---10/12-10/12-10-|
|-12--12\10--12X----8/10--8/10-10-|
|-10--10\-8--10X----------------8-|

Pre-Chorus riff:
|----------------------------------------------------------------------|
|----------------------------------------------------------------------|
|-7X*X-7-7-7--------------7X*X-7-7-7------------7X*X-7-7-7-------------|
|-7X*X-7-7-7--5X*X-5-5-5--7X*X-7-7-7-5X*X-5-5-5-7X*X-7-7-7-5-5-5-7-7-7-|
|-5X*X-5-5-5--5X*X-5-5-5--5X*X-5-5-5-5X*X-5-5-5-5X*X-5-5-5-5-5-5-7-7-7-|
|-------------3X*X-3-3-3-------------3X*X-5-5-5------------3-3-3-5-5-5-|

Chorus riff:
|-------------------------------------------------------------------------|
|-------------------------------------------------------------------------|
|-7-7--7-7-7--------------7-7--7-7-7---------------7-7--7-7-7-------------|
|-7-7--7-7-7--5-5--5-5-5--7-7--7-7-7--5-5-5-7-7-7--7-7--7-7-7--7-7--7-7-7-|
|-5-5--5-5-5--5-5--5-5-5--5-5--5-5-5--5-5-5-7-7-7--5-5--5-5-5--7-7--7-7-7-|
|-------------3-3--3-3-3--------------3-3-3-5-5-5--------------5-5--5-5-5-|

Chorus riff2:
|-------------------------------------------------------------------------|
|-------------------------------------------------------------------------|
|-7-7--7-7-7--------------7-7--7-7-7---------------7-7--7-7-7-------------|
|-7-7--7-7-7--5-5--5-5-5--7-7--7-7-7--5-5-5-7-7-7--7-7--7-7-7--7-7--7-7-7-|
|-5-5--5-5-5--5-5--5-5-5--5-5--5-5-5--5-5-5-7-7-7--5-5--5-5-5--7-7--7-7-7-|
|-------------3-3--3-3-3--------------3-3-3-5-5-5--------------5-5--5-5-5-|

|-----------------------------------------------------------------------------|
|-----------------------------------------------------------------------------|
|-7-7--7-7--7--7-7--7-7--7--7-7--7-7--7--------------7-7--7-7-7---------------|
|-7-7--7-7--7--7-7--7-7--7--7-7--7-7--7--5-5--5-5-5--7-7--7-7-7--5-5-5-7-7-7--|
|-5-5--5-5--5--5-5--5-5--7--5-5--5-5--5--5-5--5-5-5--5-5--5-5-5--5-5-5-7-7-7--|
|----------------------------------------3-3--3-3-3--------------3-3-3-5-5-5--|

|-------------------------------------------------|
|-------------------------------------------------|
|7-7--7-7-7--------------7-7--7-7--7--7-7--7-7--7-|
|7-7--7-7-7--7-7--7-7-7--7-7--7-7--7--7-7--7-7--7-|
|5-5--5-5-5--7-7--7-7-7--5-5--5-5--5--5-5--5-5--5-|
|------------5-5--5-5-5---------------------------|

Bridge riff:
|-------------------------------------------------------------------------|
|-------------------------------------------------------------------------|
|-9/10-10-10--10-10--10-10--12-12--12-12--12-12---------------------------|
|-9/10-10-10--10-10--10-10--12-12--12-12--12-12-10-12-10-12--10-12-10-12*-|
|-9/-8--8--8---8--8---8--8--10-10--10-10--10-10-10-12-10-12--10-12-10-12*-|
|------------------------------------------------8-10--8-10---8-10--8-10*-|

Bridge riff 2:
|-------------------------------------------------------------------------|
|-------------------------------------------------------------------------|
|-9/10-10-10--10-10--10-10--12-12--12-12--12-12--7*-7*-7*-7*-10*-12-12-14-|
|-9/10-10-10--10-10--10-10--12-12--12-12--12-12--7*-7*-7*-7*-10*-12-12-14-|
|-9/-8--8--8---8--8---8--8--10-10--10-10--10-10--5*-5*-5*-5*--8*-10-10-12-|
|-------------------------------------------------------------------------|

Outro:
|---2---3h5-2----------9----11h12------7---8h10-7----------9----11h12--|
|-3---3-------3----/10---10----------8---8--------8----/10---10--------|
|----------------------------------------------------------------------|
|----------------------------------------------------------------------|
|----------------------------------------------------------------------|
|----------------------------------------------------------------------|

|---2---3h5-2----------9----11h12------7---8h10-7----------9----11h12--10X-|
|-3---3-------3----/10---10----------8---8--------8----/10---10--------10X-|
|----------------------------------------------------------------------11X-|
|----------------------------------------------------------------------12X-|
|----------------------------------------------------------------------12X-|
|----------------------------------------------------------------------10X-|