Offspring-We Are One

Intro
       (repeat 4 times before going into next part of 
intro)
E-----------------------------------------------------
B-----------------------------------------------------
G----10------7-X-X-7-7--X-X-3-3--X--------------------
D-7--10------7-X-X-7-7--X-X-5-5--X-3-3-3--------------
A-7--8-------5-X-X-5-5--X-X-5-5--X-5-5-5--------------
E-5--------------------------------5-5-5--------------

Next part of intro (also is chorus only it is played
twice as the chorus)
E-----------------------------------------------------
B-----------------------------------------------------
G------------10-10-10-10-10--7-7-7-7-7--5-5-5-5-------
D-7-7-7-7-7--10-10-10-10-10--7-7-7-7-7--5-5-5-5--5-5--
A-7-7-7-7-7--8--8--8--8--8---5-5-5-5-5--3-3-3-3--5-5--
E-5-5-5-5-5--------------------------------------3-3--

Second part of intro(continued)(is not part of chorus)
E-----------------------------------------------------
B-----------------------------------------------------
G------------10-10-10-10-10--7-7-7-7-7--5-5-----------
D-7-7-7-7-7--10-10-10-10-10--7-7-7-7-7--5-5--5-5------
A-7-7-7-7-7--8--8--8--8--8---5-5-5-5-5--3-3--5-5------
E-5-5-5-5-5----------------------------------3-3------

Verse (use palm muting on all these notes)
E-----------------------------------------------------
B-----------------------------------------------------
G------------10-10-10-10-10--7-7-7-7-7--5-5-5-5-------
D-7-7-7-7-7--10-10-10-10-10--7-7-7-7-7--5-5-5-5--5-5--
A-7-7-7-7-7--8--8--8--8--8---5-5-5-5-5--3-3-3-3--5-5--
E-5-5-5-5-5--------------------------------------3-3--

Verse (continued) (still palm mute every note)
E-----------------------------------------------------
B-----------------------------------------------------
G------------10-10-10-10-10--7------------------------
D-7-7-7-7-7--10-10-10-10-10--7------------------------
A-7-7-7-7-7--8--8--8--8--8---5------------------------
E-5-5-5-5-5-------------------------------------------

Second chorus (after second verse) (notes in brackets
are palm muted)
E-----------------------------------------------------
B-----------------------------------------------------
G--------------[10-10-10-10-10]--12-12-12-12-12-------
D[-7-7-7-7-7]--[10-10-10-10-10]--10-10-10-10-10-------
A[-7-7-7-7-7]--[8--8--8--8--8-]--10-10-10-10-10-------
E[-5-5-5-5-5]-----------------------------------------

second Chorus (continued) (play 2 times) (follow with
third chorus)
E-----------------------------------------------------
B-----------------------------------------------------
G-7-7-7--5----------------------------------------
D-7-7-7--5--5-------------------------------------
A-5-5-5--3--5-------------------------------------
E-----------3-------------------------------------

third chorus (played immediatley after second chorus)
E-----------------------------------------------------
B-----------------------------------------------------
G------------10-10-10-10-10--10-10-10-10-10--7-7-7-7-7
D-7-7-7-7-7--8--8--8--8--8---10-10-10-10-10--7-7-7-7-7
A-7-7-7-7-7--8--8--8--8--8---12-12-12-12-12--5-5-5-5-5
E-5-5-5-5-5-------------------------------------------

Third Chorus (continued)
E-----------------------------------------------------
B-----------------------------------------------------
G-5----------------10-10-10-10-10--12-12-12-12-12-----
D-5--5--7-7-7-7-7--10-10-10-10-10--12-12-12-12-12-----
A-3--5--7-7-7-7-7--8--8--8--8--8---10-10-10-10-10-----
E----3--5-5-5-5-5-------------------------------------

Third chorus (continued)
E-----------------------------------------------------
B-----------------------------------------------------
G-7-7-7--12-12-12--7-7-7--12-12-12--7-7-7--12-12-12-12
D-7-7-7--12-12-12--7-7-7--12-12-12--7-7-7--12-12-12-12
A-5-5-5--10-10-10--5-5-5--10-10-10--5-5-5--10-10-10-10
E-----------------------------------------------------

Third chorus (continued) (follow with regular chorus)
E-----------------------------------------------------
B-----------------------------------------------------
G-12-12-12-12-----------------------------------------
D-12-12-12-12-----------------------------------------
A-10-10-10-10-----------------------------------------
E-----------------------------------------------------

The little riff right before the end.
(all notes palm muted)
E-----------------------------------------------------
B-----------------------------------------------------
G------------10-10-10-10-10--7-7-7-7-7--5-5-5-5--5-5--
D-7-7-7-7-7--10-10-10-10-10--7-7-7-7-7--5-5-5-5--5-5--
A-7-7-7-7-7--8--8--8--8--8---5-5-5-5-5--3-3-3-3--3-3--
E-5-5-5-5-5-------------------------------------------

       End
E-----------------------------------------------------
B-----------------------------------------------------
G------------10-10-10-10-10--12-12-12-12-12--7-7-7----
D-7-7-7-7-7--10-10-10-10-10--12-12-12-12-12--7-7-7----
A-7-7-7-7-7--8--8--8--8--8---10-10-10-10-10--5-5-5----
E-5-5-5-5-5-------------------------------------------

         End (continued)
E-----------------------------------------------------
B-----------------------------------------------------
G-5---------------------------------------------------
D-5--5------------------------------------------------
A-3--5------------------------------------------------
E----3------------------------------------------------