Nancy Boy
 
In the standard Placebo tuning (F Bb Eb Ab C C)
 
[Intro]
 
|-------------------------------------------------------------------------|
|-------------------------------------------------------------------------|
|-------------------------------------------------------------------------|
|--6-6-6-6-6-6-6-6-6-6-6-6-6-6-6-6-6-6-6-6-6-6-6-6-6-6-6-6-6-6-6-6-6-6-6--|
|--7-7-7-7-7-7-7-7-7-7-7-7-7-7-7-7-7-7-7-7-7-7-7-7-7-7-7-7-7-7-7-7-7-7-7--|
|--0-0-0-0-0-0-0-0-0-0-0-0-0-0-0-0-0-0-0-0-0-0-0-0-0-0-0-0-0-0-0-0-0-0-0--| etc
 
[Verses]
 
|-------------------------------------|---------------------------------------|
|-------------------------------------|---------------------------------------|
|-------------------------------------|--6-6-6-6-6-6-6-6-6-6-6-6-6-6-6-6-6----|
|--6-6-6-6-6-6-6-6-6-6-6-6-6-6-6-6-6--|--7-7-7-7-7-7-7-7-7-7-7-7-7-7-7-7-7-0--|
|--7-7-7-7-7-7-7-7-7-7-7-7-7-7-7-7-7--|--0-0-0-0-0-0-0-0-0-0-0-0-0-0-0-0-0-0--|
|--0-0-0-0-0-0-0-0-0-0-0-0-0-0-0-0-0--|------------------------------------0--| repeat
 
[Chorus]
 
|---------------------------------------------------|
|---------------------------------------------------|
|--9-9-9-9-9-9-9-12-12-12---------------------------|
|--9-9-9-9-9-9-9-12-12-12-9-9-9-9-9-9-9-9-9-9-9-9-9-|
|--7-7-7-7-7-7-7-10-10-10-9-9-9-9-9-9-9-9-9-9-9-9-9-|
|-------------------------7-7-7-7-7-7-7-7-7-7-7-7-7-|

|-------------------------------------------------|
|-------------------------------------------------|
|-------------------------------------------------|
|--8-8-8-8-8-8-8-8-8-8-7-7-7-7-7-7-7-7-7-7-7-7-7--|
|--8-8-8-8-8-8-8-8-8-8-7-7-7-7-7-7-7-7-7-7-7-7-7--|
|--6-6-6-6-6-6-6-6-6-6-5-5-5-5-5-5-5-5-5-5-5-5-5--|
 
The clangy in between bits are just where you have a guitar with a floating bridge and you hit 
the wrong side of it.  If you get what I mean.