BREATHE:

INTRO:  (SYNTH. ARANGED FOR GUITAR) 

E|---------------------------------------------
B|---------------------------------------------
G|---------------------------------------------
D|--1--1--1--1--4--3--4--3--1--3--0--0--0--0--0
A|---------------------------------------------
E|---------------------------------------------

VERSE: ( W/fuzz)

E|-----------------------------------------------
B|---------------------------------3-/-4--------
G|--------------------8----------- 5^/-6^------
D|--8--/--7--/--6--/--8-----------------------
A|--8--/--7--/--6--/--6-----------------------
E|--6-----5-----4--------------------------------

QUIET PART: (might be synth or allunimum/acoustic
(clean)     this is the best I can come up with.)

E|-------------------------------------------------------------
B|-------------------------------------------------------------
G|-------------------------------------------------------------
D|--10--10--10--10---10-/--9--9-9-/--7-/--6-6-/--7-
A|---8---8---8---8----8-/--7--7-7-/--5-/--4-4-/--5-
E|--------------------------------------------------------------