Radiohead - Airbag

Asus2addb13	x03200
Asus2 	x02200
Aadd9		x07600
B7add11/A	x07800
Asus4add9	x07700
B7		x21202
F#m		244222
Esus4		022200
E		022100

Intro
Gtr 2
                          Asus2addb13              Asus2
Gtr 1
E||----------------------|----------------------|----------------------|
B||----------------------|----------------------|----------------------|
G||----------------------|----------------------|----------------------|
D||----------------------|----------------------|----------------------|
A||----------------------|----------------------|----------------------|
E||-------------------0--|--1/------8------7----|--9\------5------0----|
  
Gtr 2
  Asus2addb13            Asus2                    Asus2addb13
Gtr 1
----------------------|------------------------|-----------------------|
----------------------|------------------------|-----------------------|
----------------------|------------------------|-----------------------|
----------------------|------------------------|-----------------------|
----------------------|------------------------|-----------------------|
--1/------8------7----|--5/------9/------12----|--13\------8------7----|

Gtr 2
  Asus2                   Asus2addb13            Aadd9
Gtr 1           
-----------------------|----------------------|--0----------------|
-----------------------|----------------------|--0----------------|
-----------------------|----------------------|--6----------------|
-----------------------|----------------------|--7----------------|
-----------------------|----------------------|--0----------------|
--9\------5\------0----|--1/------8------7----|-------------------|

Verse
Aadd9             B7add11/A
In the next world war
     Asus4add9
In a jackknifed juggernaut 
          Aadd9
I am born again 

Verse
In the neon sign
Scrolling up and down
I am born again

Chorus
      B7              F#m
In an interstellar burst
     Esus4            E       Asus2
I am back to save the universe

Gtr 2
   Asus2addb13              Asus2                 Asus2addb13
Gtr 1
E|----------------------|----------------------|----------------------|
B|----------------------|----------------------|----------------------|
G|----------------------|----------------------|----------------------|
D|----------------------|----------------------|----------------------|
A|----------------------|----------------------|----------------------|
E|-13\------8------7----|--9\------5------0----|--1/------8------7----|
  
Gtr 2
  Asus2                    Asus2addb13
Gtr 1
|------------------------|-----------------------|
|------------------------|-----------------------|
|------------------------|-----------------------|
|------------------------|-----------------------|
|------------------------|-----------------------|
|--5/------9/------12----|--13\------8------7----|

Verse
In a deep deep sleep
of the innocent
I am born again

Verse
In a fast german car
I'm amazed that I survived
An airbag saved my life

Repeat chorus x2

Interlude
Gtr 1
--------------|-------------|-8--7--5--7--|
-10-----9-----|-7-----9-----|-------------|
--------------|-------------|-------------|
--------------|-------------|-------------|
--------------|-------------|-------------|
--------------|-------------|-------------|

-8--7---5----------|---------------|----------------|
-----------6---3---|-6--5--3--2----|-6--5--3--2-----|
-------------------|---------------|----------------|
-------------------|---------------|----------------|
-------------------|---------------|----------------|
-------------------|---------------|----------------|

      B7              F#m
In an interstellar burst                      x2
     Esus4            E       Asus2
I am back to save the universe

Ad lib w/effects

Gtr 2
                          Asus2addb13              Asus2
Gtr 1
E||----------------------|----------------------|----------------------|
B||----------------------|----------------------|----------------------|
G||----------------------|----------------------|----------------------|
D||----------------------|----------------------|----------------------|
A||----------------------|----------------------|----------------------|
E||-------------------9/-|--13------8------7----|--9\------5------0----|
  
Gtr 2
  Asus2addb13            Asus2                    Asus2addb13
Gtr 1
----------------------|------------------------|-----------------------|
----------------------|------------------------|-----------------------|
----------------------|------------------------|-----------------------|
----------------------|------------------------|-----------------------|
----------------------|------------------------|-----------------------|
--1/------8------7----|--5/------9/------12----|--13\------8------7----|

Gtr 2
  Asus2                   Asus2addb13            Aadd9
Gtr 1           
-----------------------|----------------------|--0----------------|
-----------------------|----------------------|--0----------------|
-----------------------|----------------------|--6----------------|
-----------------------|----------------------|--7----------------|
-----------------------|----------------------|--0----------------|
--9/10\9--5\------0----|--1/------8------7----|-------------------|

http://www.sparkystabs.co.uk