Radiohead-Bones

     A7sus4 (w/tremolo)
E||------------------------|----------------------|------------------------|
B||------------------------|----------------------|------------------------|
G||------------------------|-----------------0----|----------------0--0----|
D||--x--------x--x--0------|--------------2--2----|----------2-----2--2----|
A||-----0--0--------0------|-----------0-----0----|-------0-----0-----0----|
E||------------------------|------0---------------|--0---------------------|

------------------------|--------------------------|
------------3--------3--|--------3--------3--------|
--0------------0--------|--0--------0--------0-----|
--2----2----------2-----|-----2--------2--------2--|
--0---------------------|--------------------------|
------------------------|--------------------------|

D  Asus4 (all Asus4's in verses w/tremolo, speed altered w/pedal)
   Asus4    

                             Asus4
I don't want to be crippled, cracked
                             Asus4
Shoulders, wrists, knees and back
                   Asus4
Ground to dust and ash
                Asus4
Crawling on all fours

            Em     D/F#    G       A     Bm/A  A  Bm/A  A  Bm/A  A
When you've got to feel it in your bones x2

                      Asus4
Now I can't climb the stairs
                    Asus4
Pieces missing everywhere
               Asus4
Prozac Painkillers

            Em     D/F#    G       A     Bm/A  A  Bm/A  A  Bm/A  A
When you've got to feel it in your bones x2

  D       G        D/F#  Asus4 Bm/A  A  Bm/A  A  Bm/A  A
I used to fly like peter pan
        D        G           D/F#          Asus4 Bm/A  A  Bm/A  A  Bm/A  A    
All the children flew when I touched their hands

            Em     D/F#    G       A     Bm/A  A  Bm/A  A  Bm/A  A
When you've got to feel it in your bones x2      (2nd time)eh eh eh

Em  D/F#  G  A  Bm/A  A  Bm/A  A  Bm/A  A    x3

Em F#m11 G6 Asus4 (w/tremolo)