Radiohead-Bulletproof I wish I was

Am7		x02010
Cmaj7		x32000
Gmaj7/B	x20032
Dsus2		xx0230
G		320033
Cadd9		x32033

Verse: Am7 Cmaj7 Gmaj7/B Dsus2

limb by limb and tooth by tooth
tearing up inside of me
everyday every hour wish that I was bullet proof

wax me, mould me,
heat the pins and stab them in
you have turned me into this
just wish that it was bullet proof

Chorus: G Gmaj7/B Cadd9

bullet proof...

so pay me money and take a shot
lead-fill the hole in me
i could burst a million bubbles
all surrogate and
bullet proof

bullet proof...

Chorus Figure:

/ - slide
p - pull-off

2 times:

|------7---------7----------|---------------------------|
|7/8-------7/8--------------|------7---------7----------|
|----0---0-----0---0-7p0-0-0|7p0-0---0-7p0-0---0-7p0-0-0|
|---------------------------|---------------------------|
|---------------------------|---------------------------|
|---------------------------|---------------------------|

|---------------------------| |---------------------------| |---|
|------5---------5----------| |------5---------5----------| |-3-|
|4p0-0---0-4p0-0---0-4p0-0-0| |4p0-0---0-4p0-0---0-4p0-0-0| |-0-|
|---------------------------| |---------------------------| |-3-|
|---------------------------| |---------------------------| |-1-|
|---------------------------| |---------------------------| |---|