"Exit Music"

Capo on 2nd fret.

Intro:
 [---------- x2 --------------------] then play first half x2
  Am                       Asus2 Asus4
e-----------------------------------
B---1--1--1--1-----1--1--1--0-0-3-3-
G---2--2--2--2-----2--2--2--2-2-2-2-
D---2--2--2--2-----2--2--2--2-2-2-2-
A-0-------------0-------------------
E-0-------------0-------------------

Am              E
Wake, from your sleep,
    D7sus2/C       D/F#
The drying of your tears,
Am          E          Asus4  A
Today, we escape, we escape.

Am           E
Pack and get dressed,
D7sus2/C      D/F# D/F
Before your father hears us,
Am         E           Asus4  A
Before all hell breaks loose.

Gm            Bm (or C/F#)
Breathe, keep breathing,
Asus2 Am  Asus2  Asus4  Am  E
Don't lose,      your nerve
Gm            Bm (or C/F#)
Breathe, keep breathing,
Asus2      Am   Asus2 Asus4 Am  Esus4 E
I can't do this       alone.

Sing us a song.
A song to keep us warm,
There's such a chill, such a chill...

(also w/trem picking below)
Am          B
And you can laugh 
E           F
A spineless laugh
F            Bb        E
We hope your rules and wisdom choke you.

Am             E
And now we are one 
D7sus2/C       D/F# D/F
In everlasting peace

Am               E              Asus4    A
We hope that you choke that you choke.
Am               E              Asus4    A
We hope that you choke that you choke.
Am               E              Asus4    A
We hope that you choke that you choke.

---

Below riff not relative to capo.

Starts on "you can laugh"

--------------------------------------------------------------------------------
--19-19-19-19-19-19-19-19-19-19-19-19-19-19-19-19-19-19-19-19-19-19-19-19-19-19-
--------------------------------------------------------------------------------
--------------------------------------------------------------------------------
--------------------------------------------------------------------------------
--------------------------------------------------------------------------------
                                                                                
--21-21-21-21-21-21-21-21-21-21-21-21-21-21-21-21-21-21-21-21-21-21-21-21-21-21-
--------------------------------------------------------------------------------
--------------------------------------------------------------------------------
--------------------------------------------------------------------------------
--------------------------------------------------------------------------------
--------------------------------------------------------------------------------
                                                                                
--------------------------------------------------------------------------------
--17-17-17-17-17-17-17-17-17-17-17-17-17-17-17-17-17-17-17-17-17-17-17-17-17-17-
--------------------------------------------------------------------------------
--------------------------------------------------------------------------------
--------------------------------------------------------------------------------
--------------------------------------------------------------------------------
                                                                                
--19-19-19-19-19-19-19-19-19-19-19-19-19-19-19-19-19-19-19-19-19-19-19-19-19-19-
--------------------------------------------------------------------------------
--------------------------------------------------------------------------------
--------------------------------------------------------------------------------
--------------------------------------------------------------------------------
--------------------------------------------------------------------------------
                                                                                
--------------------------------------------------------------------------------
--15-15-15-15-15-15-15-15-15-15-15-15-15-15-15-15-15-15-15-15-15-15-15-15-15-15-
--------------------------------------------------------------------------------
--------------------------------------------------------------------------------
--------------------------------------------------------------------------------
--------------------------------------------------------------------------------
                                                                              
--------------------------------------------------------------------------------
--17-17-17-17-17-17-17-17-17-17-17-17-17-17-17-17-20-20-20-20-20-20-20-20-20-20-
--------------------------------------------------------------------------------
--------------------------------------------------------------------------------
--------------------------------------------------------------------------------
--------------------------------------------------------------------------------
                                                                                
--18-18-18-18-18-18-18-18-18-18-18-18-18-18-18-18-18-18-18-18-18-18-18-18-18-18-
--------------------------------------------------------------------------------
--------------------------------------------------------------------------------
--------------------------------------------------------------------------------
--------------------------------------------------------------------------------
--------------------------------------------------------------------------------
                                                                                
--16-16-16-16-16-16-16-16-16-16-16-16-16-16-16-16-16-16-16-16-16-16-16-16-16-16-
--------------------------------------------------------------------------------
--------------------------------------------------------------------------------
--------------------------------------------------------------------------------
--------------------------------------------------------------------------------
--------------------------------------------------------------------------------
                                                                                
--19-19-19-19-19-19-19-19-19-19-19-19-19-19-19-19-19-19-19-19-19-19-19-19-19-19-
--------------------------------------------------------------------------------
--------------------------------------------------------------------------------
--------------------------------------------------------------------------------
--------------------------------------------------------------------------------
--------------------------------------------------------------------------------
                                                                                
--18-18-18-18-18-18-18-18-18-18-18-18-18-18-18-18-18-18-18-18-18-18-18-18-18-18-
--------------------------------------------------------------------------------
--------------------------------------------------------------------------------
--------------------------------------------------------------------------------
--------------------------------------------------------------------------------
--------------------------------------------------------------------------------
                                                                                
--17-17-17-17-17-17-17-17-17-17-17-17-17-17-17-17-17-17-17-17-17-17-17-17-17-17-
--------------------------------------------------------------------------------
--------------------------------------------------------------------------------
--------------------------------------------------------------------------------
--------------------------------------------------------------------------------
--------------------------------------------------------------------------------
                                                                                
--17-17-17-17-17-17-17-17-17-17-17-17-17-17-17-17-17-17-17-17-17-17-17-17-17-17-
--------------------------------------------------------------------------------
--------------------------------------------------------------------------------
--------------------------------------------------------------------------------
--------------------------------------------------------------------------------
--------------------------------------------------------------------------------
                                                                                
--14-14-14-14-14-14-14-14-14-14-14-14-14-14-14-14-14-14-14-14-14-14-14-14-14-14-
--------------------------------------------------------------------------------
--------------------------------------------------------------------------------
--------------------------------------------------------------------------------
--------------------------------------------------------------------------------
--------------------------------------------------------------------------------
                                                                                
--------------------------------------------------------------------------------
--14-14-14-14-14-14-14-14-14-14-14-14-14-14-14-14-14-14-14-14-14-14-14-14-14-14-
--------------------------------------------------------------------------------
--------------------------------------------------------------------------------
--------------------------------------------------------------------------------
--------------------------------------------------------------------------------
                                                                                
--12-12-12-12-12-12-12-12-12-12-12-12-12-12-12-12-12-12-12-12-12-12-12-12-12-12-
--------------------------------------------------------------------------------
--------------------------------------------------------------------------------
--------------------------------------------------------------------------------
--------------------------------------------------------------------------------
--------------------------------------------------------------------------------
                                                                                
--11-11-11-11-11-11-11-11-11-11-11-11-11-11-11-11-11-11-11-11-11-11-11-11-11-11-
--------------------------------------------------------------------------------
--------------------------------------------------------------------------------
--------------------------------------------------------------------------------
--------------------------------------------------------------------------------
--------------------------------------------------------------------------------
                                                                                
--10-10-10-10-10-10-10-10-10-10-10-10-10-10-10-10-10-10-10-10-10-10-10-10-10-10-
--------------------------------------------------------------------------------
--------------------------------------------------------------------------------
--------------------------------------------------------------------------------
--------------------------------------------------------------------------------
--------------------------------------------------------------------------------
                                                                                
--9-9-9-9-9-9-9-9-9-9-9-9-9-9-9-9-9-9-9-9-9-9-9-9-9-9-9-9-9-9-9-9-9-9-9-9-9-9-9-
--------------------------------------------------------------------------------
--------------------------------------------------------------------------------
--------------------------------------------------------------------------------
--------------------------------------------------------------------------------
--------------------------------------------------------------------------------
                                                                                
--------------------------------------------------------------------------------
--11-11-11-11-11-11-11-11-11-11-11-11-11-11-11-11-11-11-11-11-11-11-11-11-11-11-
--------------------------------------------------------------------------------
--------------------------------------------------------------------------------
--------------------------------------------------------------------------------
--------------------------------------------------------------------------------
                                                                                
--------------------------------------------------------------------------------
--12-12-12-12-12-12-12-12-12-12-12-12-12-12-12-12-12-12-12-12-12-12-12-12-12-12-
--------------------------------------------------------------------------------
--------------------------------------------------------------------------------
--------------------------------------------------------------------------------
--------------------------------------------------------------------------------