"High And Dry" by Radiohead


low E|---0---s----0---s----0---s----0----s---0--------------------
     |---7---s---11---s----9---s---11----s---7--------------------
     |---x---l----x---l----x---l----x----l---x--------------------
     |---9---i---13---i---11---i---13----i---9--------------------   
     |---0---d----0---d----0---d----0----d---0--------------------
highE|---0---e----0---e----0---e----0----e---0--------------------

F#m11	Aadd9	E	and	F#m11	Aadd9	E	A/E	E	A/E

The A/E changes are very quick, but they are there. Just listen for them.

The chords look like this.

F#m11:2x4200	E:022100
Aadd9:577600	A/E:04x200 this chord is often substituted with Esus4:022200

The sliding octaves at the start actually look like this:
x11x1300 slide to x9x1100 back to x11x1300 slide to x7x900 (strum in time,
then add the low "E") 07x900

now here are the solos:

at *2:50*

  F#m11:2x4200    Aadd9:577600      E:022100

1:--0-------0-------0-------0-0-------0-------0--------0-------0----------------
2:5---4-5-5---4-5-5---4-5-5/7---4-4-5---4-5-5---2--------0---2-4-4--------------
3:-------------------------------------------------4-4-----4--------------------
4:------------------------------------------------------------------------------
5:------------------------------------------------------------------------------
6:------------------------------------------------------------------------------

  F#m11:2x4200    Aadd9:577600      E:022100

1:--0-------0-------0-------0-0-------0-------0---------------------------------
2:5---4-5-5---4-5-5---4-5-5/7---4-4-5---4-5-5---2-------------------------------
3:-------------------------------------------------4-4///////////1--------------
4:------------------------------------------------------------------------------
5:------------------------------------------------------------------------------
6:------------------------------------------------------------------------------

Now at *3:33*

  F#m11:2x4200    Aadd9:577600      E:022100

1:--0-------0-------0---------0-------0-----------------------------------------
2:5---4-5-5---4-5-5---4-4-5/7---5-4-5---4-5-5-2-2-------------------------------
3:------------------------------------------------4-4-2-1-1---------------------
4:------------------------------------------------------------------------------
5:------------------------------------------------------------------------------
6:------------------------------------------------------------------------------

  F#m11:2x4200    Aadd9:577600    E:022100

1:--0-------0-------0-------0-------0-------0-----------------------------------
2:5---4-5-5---4-5-5---4-5-5---4-5-5---4-5-5---4-5--5-5-5-5-7-7-9-9--------------
3:------------------------------------------------------------------------------
4:------------------------------------------------------------------------------
5:------------------------------------------------------------------------------
6:------------------------------------------------------------------------------

Finally, the interesting bit at *3:54*

  F#m11:2x4200                   Aadd9:577600                   E:022100

1:-0---0---0---0---0---0--0---0---0---0---0---0---0---0--0---0--------12--------
2:-0---0---0---0---0---0--0---0---0---0---0---0---0---0--0---0-----------0------
3:14--14--13--14--13--11--9--13--14--14--14--14--13--11--9--11--11/13------14---
4:------------------------------------------------------------------------------
5:------------------------------------------------------------------------------
6:------------------------------------------------------------------------------

 (E:022100)                                F#m11:2x4200
Aadd9  E

1:-0-------0---0--0--0-0----0---0---0---0---0---0---0---0---0---0--0--0--------0
2:-0-------0---0--0--0---0--0---0---0---0---0---0---0---0---0---0--0--0--------0
3:11-h-13-11--11--9--9------9--11--13--13--14--14--13--14--13--11--9--1---2----1
4:------------------------------------------------------------------------2----2
5:------------------------------------------------------------------------0----2
6:-----------------------------------------------------------------------------0

h:hammer on     ///////:gradual slide
/:slide