Radiohead - Lucky

 Em       Am    G        Bm
 I'm on a roll, I'm on a roll

  Bm
E:-2-----2-0-:
B:-3---------:
G:-4---4-----:
D:-4-4-------:
A:-2---------:
E:-----------:

     Em
 ....this time
 C G       Bm         Em
 I feel my luck could change.

 Kill me Sarah...
 Kill me again....with love.
 It's gonna be a glorious day.

        A     Asus2        Em
Pull me ou  -  t    of the aircrash,
        A     Asus2     Em
Pull me ou  -  t    of the wreck,
               A  Asus2  Em
Cause I'm your su  -  perhero,

E:-------------------------------------:
B:--14-14b16b14-12---------------------:
G:-----------------14-12----12----12---:
D:-----------------------14----14------:
A:-------------------------------------:
E:-------------------------------------:

E:-----------------------15-14-12------:
B:--14-14b16b14-12---------------------:
G:-----------------14-12---------------:
D:-------------------------------------:
A:-------------------------------------:
E:-------------------------------------:

E:-------------------------------------:
B:--14-14b16b14-12---------------------:
G:-----------------14-12---------------:
D:-----------------------14-12---------:
A:-----------------------------14-12---:
E:-------------------------------------:

Leave you    standing on the edge...

              C7             B7
          E:-----------------0----:
          B:--------1--------0----:
          G:------3----------2----:
          D:----2------------1----:
          A:--3--------------2----:
          E:----------------------:

 Em Em(F) Em

The head of state has called for me by name.
But I dont have time for him
Its gonna be a glorius day
I feel my luck could change

Bridge

E:----0-0-0-0-0---0---0-0-----------0---:
B:----7-7-7-7-7---5---3-1-----------0---:
G:----0-0-0-0-0---0---0-0-----------0---:
D:----x-x-x-x-x---x---x-x-----------2---:
A:----9-9-9-9-9---7---5-3-----------2---:
E:--0---------------------2-2-2-3-2-0---:

E:--0-0-0-0-0---0---0-0-----------0---:
B:--7-7-7-7-7---5---3-1-----------0---:
G:--0-0-0-0-0---0---0-0-----------0---:
D:--x-x-x-x-x---x---x-x-----------2---:
A:--9-9-9-9-9---7---5-3-----------2---:
E:----------------------2-2-2-3-2-0---:

E:--0-0-0-0-0---0---0-0-----------0---:
B:--7-7-7-7-7---5---3-1-----------0---:
G:--0-0-0-0-0---0---0-0-----------0---:
D:--x-x-x-x-x---x---x-x-----------2---:
A:--9-9-9-9-9---7---5-3-----------2---:
E:----------------------2-2-2-3-2-0---:

E:--0-0-0-0-0---0---0-0-----------0---:
B:--7-7-7-7-7---5---3-1-----------0---:
G:--0-0-0-0-0---0---0-0-----------0---:
D:--x-x-x-x-x---x---x-x-----------2---:
A:--9-9-9-9-9---7---5-3-----------2---:
E:----------------------2-2-2-3-2-0---:

E:-------------------------------------:
B:--14-14b16b14-12---------------------:
G:-----------------14-12----12----12---:
D:-----------------------14----14------:
A:-------------------------------------:
E:-------------------------------------:

E:-----------------------15-14-12------:
B:--14-14b16b14-12---------------------:
G:-----------------14-12---------------:
D:-------------------------------------:
A:-------------------------------------:
E:-------------------------------------:

E:-------------------------------------:
B:--14-14b16b14-12---------------------:
G:-----------------14-12---------------:
D:-----------------------14-12---------:
A:-----------------------------14-12---:
E:-------------------------------------:

Leave you    standing on the edge...

          E:-----------------0----:
          B:--------1--------0----:
          G:------3----------2----:
          D:----2------------1----:
          A:--3--------------2----:
          E:----------------------:

Solo

E|----9--10--9----------------------9--10--9-----------15--14--12---
B|-------------12--10--8----8----8-----------12--10--8--------------
G|-----------------------9----9-------------------------------------
D|------------------------------------------------------------------
A|------------------------------------------------------------------
E|------------------------------------------------------------------

E|----9--10--9----------------------------------|
B|-------------12--10--8------------------------|
G|------------------------9---------------------|
D|---------------------------12--9--------------|
A|----------------------------------------------|
E|----------------------------------------------|