"My Iron Lung" by Radiohead

Key:
 ^= bend
 /= slide down
 X= pick scrapes (note: to do the pick weird noise right at the end, rub the
plectrum on the up and down on the string (not top to bottom) rapidly with
distort on).
 
This is the main riff, but take note that everytime it's played after every
verse or chorus, there's a slight variation of it.

/w pitch shifter
 ----------------------------------
 ------3-0-----0-------1-----------
 ----0-------0---0---0---0-2^-2-0--
 ----------3-------1---------------
 ----------------------------------
 --3-------------------------------
 
 ---------------------------------
 ------3-0-----0-------1---/----4-
 ----0-------0---0---2-----/--5---
 ----------3-------1------1/4-----
 ---------------------------------
 --3------------------------------
 
 ---------------------------------
 ------3-0-----0-------1-3^4-3-1--
 ----0-------0---0---0------------
 ----------3-------1--------------
 ---------------------------------
 --3------------------------------
 
 ----------------------------------
 ------3-0-----0-------1-----------
 ----0-------0---0---0---0-2^3-2-0-
 ----------3-------1---------------
 ----------------------------------
 --3-------------------------------

Basic bass riff:
-------------------------------------------------------------
-------------------------------------------------------------
----------------3-3-3-3-3-3-3-3-----------------3-3/5/6/6/8/8
3-3-3-3-3-3-3-3-----------------3-3-3-3-3-3-3-3--------------


Faith, your driving me away
You do it everyday

-------------------------------------------------------------
--------------------------------------3-------3-2-3-2-3-2-3-2
-------4---------------5------------4------------------------
-----5---------------5------------5--------------------------
---5---------------3-----------------------------------------
-3---------------3--------------3----------------------------
       You don't mean it but it hurts__  like hell

---------3--3--------------3-------
---------3--3--1-----------4-------
---------4--4--0-----------5-------
---------5--5--0-----------5-------
---------5--5--------------3-------
---------3--3----------------------

My brain       says i'm receiving pain
               A lack of   oxygen


--------------------------------------------------------------
---------------------------------------3-------3-2-3-2-3-2-3-2
-------4--------------5--------------4------------------------
-----5--------------5--------------5--------------------------
---5--------------3-------------------------------------------
-3--------------3----------------3----------------------------
        From my life support my  i_____ron     lung____


*Play main riff*

-----------------------3-------
----------------------------4-3
-------------------------------
-------------------------------
-------------------------------
-------------------------------
  We're   too young to fall a sleep

----------3------------
--------------4--3-----
-----------------------
-----------------------
-----------------------
-----------------------
  Too cynical to speak

--------------2----------------------------------
-----------------4--3------------4-3-4-3-4-3-4-3-
-------------------------------------------------
-------------------------------------------------
-------------------------------------------------
-------------------------------------------------
We are losing it       Can't you tell?

          G(only 1st time)     G
----------3--3-------3---------------
----------3--3--1----4---------------
----------4--4--0----5---------------
----------5--5--0----5---------------
----------5--5-------3---------------
----------3--3-----------------------
We scratch      our  eternal itch
             A  20th century bitch
          
--------------------------------------------------------------
---------------------------------------3-------3-2-3-2-3-2-3-2
-------4--------------5--------------4------------------------
-----5--------------5--------------5--------------------------
---5--------------3-------------------------------------------
-3--------------3----------------3----------------------------
       We are   grateful for our i____ ron     lung

*Play Main riff*


---------------
-8-7-6-5---4-3-
---------------
---------------
---------------
---------------

Chorus:
 
   G G    G G        C C       C C          E
---------------------------------------------
---------------------------------------------
--------2^-------2^----0----2^---2^ 2^2^-----
--------------------------------------------2
--------------------------------------------2
--------------------------------------------0
    THE HEADSHRINKERS, THEY WANT EVERYTHING

        E    E
---------------------------
---------------------------
-----0--2^---0---2^----0---
---------------------------
---------------------------
---------------------------
    MY  UN___CLE BILL


---------------------------
----8--7-6-5---4--3--------
---------------------------
---------------------------
---------------------------
---------------------------
    MY BELISHA BEACON

*Repeat chorus*

*Play main riff*

-------------------------------------
----------------------3--------------
-------------------------5----4------
----------------5--------------------
---------3---------------------------
-------------------------------------
 Suck,   Suck   your  teenage thumb
         

-----------------------------
----------------------3------
-------------------------5---
----------------5------------
---------3-------------------
-----------------------------
         Toilet trained  and

----------------------------------
----------------------------------
-4-------------------5------------
------5----------------5----------
--------5-----------------3-------
----------3--------------------3--
 dumb       When the power runs out

-----------------------------
-3-----------4-3-4-3-4-3-4-3-
---4-------------------------
-----5-----------------------
-------5---------------------
-----------------------------
 We'll just hum


          G(only 1st time)          G
----------3--3----------3------------
----------3--3--1-------4------------
----------4--4--0-------5------------
----------5--5--0-------5------------
----------5--5----------3------------
----------3--3-----------------------
     This       This is our new song

          G                         G
----------3--3--------------3------------
----------3--3-----1--------4------------
----------4--4-----0--------5------------
----------5--5-----0--------5------------
----------5--5--------------3------------
----------3--3---------------------------
              Just like the last one


------------------------------------------------
------------------------------------------3-----
-------4--------------5-----------------4-------
-----5--------------5-----------------5---------
---5--------------3-----------------------------
-3--------------3-------------------3-----------

        A total w.a.s.t.e of time my i_____iron

--------------
-8-7-6-5-4-3--
--------------
--------------
--------------
--------------
 lu______ng


*Play Chorus twice*

*Solo 1*

 G G     G G     C C         C C   E
-------------------------------------
-------------------------------------
-----3-5-----5-3-----5-3-5-3-5^5-3---
-----------------------------------2-
-----------------------------------2-
-----------------------------------0-


--------------------
-5^---5^-8-7-6-5-4-3
-5^-0-5^------------
--------------------
--------------------
--------------------

 G G     G    C           E
---------------------------
-------5^---5^---5^5^5^5^--
-----0-5^-0-5^-0-5^5^5^5^--
--------------------------2
--------------------------2
--------------------------0


---------------------------
-------5^---5^8-7-6-5-4-3--
-----0-5^-0-5^-------------
---------------------------
---------------------------
---------------------------


*Outro*
  
  Bb            C                      Db
-------------------------------------------------
-3--------------5----------------------6---------
-------------------------------------------------
-------------------------------------------------
-------------------------------------------------
-------------------------------------------------
  And if you're frightened, you can be frightened

             C
-----------------------
-------------8---------
-----------------------
-----------------------
-----------------------
-----------------------
 You can be, it's okay


  Bb            C                      Db
-------------------------------------------------
-10-------------8----------------------6---------
-------------------------------------------------
-------------------------------------------------
-------------------------------------------------
-------------------------------------------------
  And if you're frightened, you can be frightened

-------------------------
-------------8-7-6-5-4-3-
-------------------------
-------------------------
-------------------------
-------------------------
 You can be, it's okay___


*End solo*

-----------------------------------14-11-10-11-12--
-8-8-10-11^--8-8-10-11^--8-8-10-11-----------------
---------------------------------------------------
---------------------------------------------------
---------------------------------------------------
---------------------------------------------------

---------------------
-8-8-8-8-8-8-8-8-8-8-
---------------------
---------------------
---------------------
---------------------

*Repeat end solo*


---------------------------------------------------------------------------
-8---8-8-8-8-8-----8-----8----8----8----8---8-8-----8----8----8----8-8----8
---------------------------------------------------------------------------
---------------------------------------------------------------------------
---------------------------------------------------------------------------
---------------------------------------------------------------------------
  THE HEADSHRINKERS THEY WANT EVERYTHING MY UN__CLE BILL MY BELISHA BEACON


--XXXXXXXXXXXXXXXXXXXXXXXXXXXXXXXXXXXXXXXXXXXXXXXXXXXXXXXXXXXXXXXXXXXXXXXXX
--XXXXXXXXXXXXXXXXXXXXXXXXXXXXXXXXXXXXXXXXXXXXXXXXXXXXXXXXXXXXXXXXXXXXXXXXX
---------------------------------------------------------------------------
---------------------------------------------------------------------------
---------------------------------------------------------------------------
---------------------------------------------------------------------------
  THE HEADSHRINKERS THEY WANT EVERYTHING MY UN__CLE BILL MY BELISHA BEACON

---------
--12/0---
---------
---------
---------
---------


/\/\/\/\/\/\/\/\/\/\/\/\/\/\/\/\/\/\/\/\/\/\/\
+  Adrian Morse <amorse@waterw.com>          +
+  The Radiohead Guitar Archive @ No Alarms  +
+  http://www.waterw.com/~amorse/radiohead/  +
++++++++++++++++++++++++++++++++++++++++++++++