Pearly*
-------

open GTR noise.
riff:
D---------------3-2-0--------------
A--0---------0--------3-0-----RPT--
E----------------------------------

The chords for the verse are:
Am, E, Em, F x2
F, C, E_____ (over this Jonny implies a sus4 to third resolve)

sorry cant't make out the words.
outro picking part (w/ the high voice)
  Am            C              E
e-------0-------------0--------------0--------------0-------------
B---------1-------------1--------------0--------------0-----------
G-----------2-------------0--------------1--------------1---------
D----2--------2----2--------2--------------2--------------2-------
A-0-------------3-----------------2--------------2----------------
E--------------