You by Radiohead

Intro: (main riff, with chorus effect)
E||--------0----------0-|--------0----------0-|--------0---------0-|--------0--------|
B||-----0---------15----|-----0---------15----|-----0---------0----|-----0---------0-|
G||-13--------13--------|-13--------13--------|-16--------16-------|-14--------14----|
D||---------------------|---------------------|--------------------|-----------------|
A||---------------------|---------------------|--------------------|-----------------|
E||---------------------|---------------------|--------------------|-----------------|

  E               Em              Cadd9                G5        D/F#  E                 
--0------------|--0--------0--0--|-------------------|--3--3-3-3-3-2--0-0-|
--0------------|--0--------0--0--|--3--3----3--3--3--|--3--3-3-3-3-3--0-0-|
--1------------|--0--------0--0--|--0--0----0--0--0--|--0--0-0-0-0-2--1-1-|
--2------------|--2--------2--2--|--2--2----2--2--2--|--0--0-0-0-0-0--2-2-|
--2------------|--2--------2--2--|--3--3----3--3--3--|----------------2-2-|
--0------------|--0--------0--0--|-------------------|--3--3-3-3-3-2--0-0-|

E5 (let ring through verse)
You are, the sun the moon and stars are you
And I, could never run away from 

  C#m7                 C7M                                               
--0--0--0--0--0--0--|--0--0--0--0--0--0--|------------------------------|
--0--0--0--0--0--0--|--0--0--0--0--0--0--|------------------------------|
--6--6--6--6--6--6--|--5--5--5--5--5--5--|----------------12------------|
--6--6--6--6--6--6--|--5--5--5--5--5--5--|--12h14---------12--14-14-----|
--4--4--4--4--4--4--|--3--3--3--3--3--3--|------------------------------|
--------------------|--------------------|--------x-x-x-x-----------x-x-|
 you.....
                                    C#m7                 C7M                  
---------------------------------|--0--0--0--0--0--0--|--0--0--0--0--0-0-0-0-|
----------------14p12----------0-|--0--0--0--0--0--0--|--0--0--0--0--0-0-0-0-|
----------------14p12----------0-|--6--6--6--6--6--6--|--5--5--5--5--5-5-5-5-|
--12h14---------------14p12----0-|--6--6--6--6--6--6--|--5--5--5--5--5-5-5-5-|
----------------------------14---|--4--4--4--4--4--4--|--3--3--3--3--3-3-3-3-|
--------x-x-x-x------------------|--------------------|----------------------|
                                                         
--0-0-0-0-0-0-0-0-0-0-0-0-|--0-0-0-0-0-0-0-0--0--0--0--0--|
--3/5-5-5-5-5-5/7-7-7-7-7-|--7/8-8-8-8-8-8/10-10-10-10-10-|
--------------------------|-------------------------------|
--------------------------|-------------------------------|
--------------------------|-------------------------------|
--------------------------|-------------------------------|
                                                                  
--0--0--0--0--0--0--0--0--0--0--0--0--|--0--0--0--0--0----0------|
--10/12-12-12-12-12-12/13-13-13-13-13-|--13\12-12-12-12\5-0--3p0-|
--------------------------------------|--------------------------|
--------------------------------------|--------------------------|
--------------------------------------|--------------------------|
--------------------------------------|--------------------------|
                                                           
--0-0-0-0-0-0-0-0-0-0-0-0-|--0-0-0-0-0-0-0-0--0--0--0--0--|
--3/5-5-5-5-5-5/7-7-7-7-7-|--7/8-8-8-8-8-8/10-10-10-10-10-|
--------------------------|-------------------------------|
--------------------------|-------------------------------|
--------------------------|-------------------------------|
--------------------------|-------------------------------|
                                                                                  
--0--0--0--0--0--0--0--0--0--0--0--0--|--0--0--0--0--0----0------|--0------------|
--10/12-12-12-12-12-12/13-13-13-13-13-|--13\12-12-12-12\5-0--3p0-|--4b-----------|
--------------------------------------|--------------------------|---------------|
--------------------------------------|--------------------------|---------------|
--------------------------------------|--------------------------|---------------|
--------------------------------------|--------------------------|---------------|
											(hold bend til
										     E chords in verse)

                               E
You try at working out chaotic things
    Em
And why, should I believe myself, not

E                Em                   Cadd9               G5          D/F#
----------------|-------------------|--------------------|---------3--2--0--|
----------------|-------------------|-----------3--------|-------3-------0--|
--13\-----------|--12----------12\5-|--------------0-----|-----0------------| (repeat this)
----------------|-------------------|-----2--2--------0--|------------------|
----------------|-------------------|--3-----------------|------------------|
----------------|-------------------|--------------------|--3---------------|
 you.....

E    Em        Cadd9          G5  D/F#  E
It's like, the world is gonna end so    soon
    Em          Cadd9     G5  D/F#
And why, should I believe myself

  C#m7                 C7M                                               
--0--0--0--0--0--0--|--0--0--0--0--0--0--|------------------------------|
--0--0--0--0--0--0--|--0--0--0--0--0--0--|------------------------------|
--6--6--6--6--6--6--|--5--5--5--5--5--5--|----------------12------------|
--6--6--6--6--6--6--|--5--5--5--5--5--5--|--12h14---------12--14-14-----|
--4--4--4--4--4--4--|--3--3--3--3--3--3--|------------------------------|
--------------------|--------------------|--------x-x-x-x-----------x-x-|
                                    C#m7                 C7M                  
---------------------------------|--0--0--0--0--0--0--|--0--0--0--0--0-0-0-0-|
----------------14p12----------0-|--0--0--0--0--0--0--|--0--0--0--0--0-0-0-0-|
----------------14p12----------0-|--6--6--6--6--6--6--|--5--5--5--5--5-5-5-5-|
--12h14---------------14p12----0-|--6--6--6--6--6--6--|--5--5--5--5--5-5-5-5-|
----------------------------14---|--4--4--4--4--4--4--|--3--3--3--3--3-3-3-3-|
--------x-x-x-x------------------|--------------------|----------------------|

N.C.     Em   Cadd9 G5 D/F#  E  Em  Cadd9 G5  D/F#
Oh____________________ Oh_________________________

--0-0-0-0-0-0-0-0-0-0-0-0-|--0-0-0-0-0-0-0-0--0--0--0--0--|
--3/5-5-5-5-5-5/7-7-7-7-7-|--7/8-8-8-8-8-8/10-10-10-10-10-|
--------------------------|-------------------------------|
--------------------------|-------------------------------|
--------------------------|-------------------------------|
--------------------------|-------------------------------|
                                                                  
--0--0--0--0--0--0--0--0--0--0--0--0--|--0--0--0--0--0----0------|
--10/12-12-12-12-12-12/13-13-13-13-13-|--13\12-12-12-12\5-0--3p0-|
--------------------------------------|--------------------------|
--------------------------------------|--------------------------|
--------------------------------------|--------------------------|
--------------------------------------|--------------------------|
                                                           
--0-0-0-0-0-0-0-0-0-0-0-0-|--0-0-0-0-0-0-0-0--0--0--0--0--|
--3/5-5-5-5-5-5/7-7-7-7-7-|--7/8-8-8-8-8-8/10-10-10-10-10-|
--------------------------|-------------------------------|
--------------------------|-------------------------------|
--------------------------|-------------------------------|
--------------------------|-------------------------------|                                                                 
                                                                                     
--0--0--0--0--0--0--0--0--0--0--0--0--|--0--0--0--0--0----0------|--0--0--0--0------|
--10/12-12-12-12-12-12/13-13-13-13-13-|--13-12-12-12-12\5-0--3p0-|--3b-3b-3b-3b-----|
--------------------------------------|--------------------------|------------------|
--------------------------------------|--------------------------|------------------|
--------------------------------------|--------------------------|------------------|
--------------------------------------|--------------------------|------------------|
                                                                    (hold final bend)           
--------------|--------------|------------|-----------------|--------------------|
--------------|--------------|------------|-----------------|--------------------|
--------------|--------------|------------|--9--------9--9--|--9--9--9--9--9--9--|
--------------|--------------|------------|--9--------9--9--|--9--9--9--9--9--9--|
--------------|--------------|------------|-----------------|--------------------|
--------------|--------------|------------|-----------------|--------------------|
                                                                                    
--------------------|-----------------|
--------------------|-----------------|
--9--9--9--9--9--9--|--9--9--9--9--9--|
--9--9--9--9--9--9--|--9--9--9--9--9--|
--------------------|-----------------|
--------------------|-----------------|


You, me and everything
Caught in the fire              (play the main riff during this section)
I, can see me drowning
Caught in the fire

E    Em     Cadd9 G5  D/F#      (continue main riff with chords) 
You, me and everything
E       Em Cadd9 G5  D/F#
Caught, in the  fire
E      Em     Cadd9 G5  D/F#
I, can see me drowning
E       Em   Cadd9 G5  D/F#    
Caught, in the fire

{End on an E}