Red Hot Chili Peppers-Breaking The Girl

Capo 4

Intro/ Verse
-0-0-0-|-----0-0-0-0-|-0-0-0-|-----0-0-0-0-|-0-0-0-|-
-0-0-0-|-----0-0-0-0-|-0-0-0-|-----0-0-0-0-|-0-0-0-|-
-1-1-1-|-----1-1-1-1-|-3-4-4-|-----4-4-4-4-|-6-6-6-|-
-2-2-2-|-----2-2-2-2-|-4-5-5-|-----5-5-5-5-|-7-7-7-|-
-2-2-2-|-----2-2-2-2-|-4-5-5-|-----5-5-5-5-|-7-7-7-|-
-0-0-0-|-4\0-0-0-0-0-|-0-0-0-|-6\0-0-0-0-0-|-0-0-0-|-

-----0-0-0-0-|-0-----|---------|
-----0-0-0-0-|-0-9-9-|-9-9-9-9-|
-----6-6-6-6-|-8-9-9-|-9-9-9-9-|
-----7-7-7-7-|-9-9-9-|-9-9-9-9-|
-----7-7-7-7-|-9-7-7-|-7-7-7-7-|
-8\0-0-0-0-0-|-0-0-0-|-0-0-0-0-|

Verse
I am a man cut from the know
Rarely do friends come and then go
She was a girl soft but estranged
We were the two our lives rearranged

Bridge
G          D         Em
Feeling so good that day
G            D         C
A feeling of love that day

Chorus
Em           D/F#         G            Am
Twisting and turning your feelings are burning
       B            B/A   B/G  B/F#
You're Breaking The Girl
Em  D/F#  G   Am C
She meant you no harm
Em              D/F#       G            Am
Think you're so clever but now you must sever
       B            B/A   B/G  B/F#
You're Breaking The Girl
Em D/F#  G  Am  C     C7  B7
He loves no one else

Verse
Raised by my dad, girl of the day.
He was my dad, that was the way.
She was a girl left alone
Feeling the need to make me her home.
I don't know what or why
the twilight of love had arrived

Bridge

Chorus

Middle
Em

Chorus ( to fade, not C7 and B7 at end)