'NAKED' by REEF
----------------

Main Riff:-

E|----------------------------------|
B|----------------------------------|
G|--------5-------------------------|
D|---3/7-----7/5h3------------------|
A|-------------------5h3------3-5---|
D|------------------------0---------|

- that's the main riff, it's repeated over  until the middle-chorusy bit!


Chorus:-

E|------------------|----------------|------10---------|------10---------|
B|------------------|----------------|------10---------|------10---------|
G|------------------|----------------|------10---------|------10---------|
D|--3-3-3-3-3-3-3-3-|-5-5-5-5-5-5-5/-|-----------------|-----------------|
A|--3-3-3-3-3-3-3-3-|-5-5-5-5-5-5-5/-|---------3xx5----|---------3xx5----|
D|--3-3-3-3-3-3-3-3-|-5-5-5-5-5-5-5/-|--0-0------------|--0-0------------|

E|------------------|----------------|
B|------------------|----------------|
G|------------------|----------------|
D|--3-3-3-3-3-3-3-3-|-5-5-5-5-5-5-5/-|
A|--3-3-3-3-3-3-3-3-|-5-5-5-5-5-5-5/-|
D|--3-3-3-3-3-3-3-3-|-5-5-5-5-5-5-5/-|



Solo:-

E|---------------------------------10------10----|--
B|--13---13-13--13-13--etc------13------13-------|--
G|--12b--12b12--12b12--etc---12------12----------|--
D|-----------------------------------------------|--
A|-----------------------------------------------|--
D|-----------------------------------------------|--

E|------------------------------------------------------------------10-|
B|------------------------------------------------------------------10-|
G|--12b12p10-12b12p10-12b12p10-12b12p10-12b12p10-12b12p10-12b12p10--10-|
D|---------------------------------------------------------------------|
A|---------------------------------------------------------------------|
D|---------------------------------------------------------------------|

Notes on the solo:-
(1) the solo is played with tremolo and Wah throughout
(2) i've written etc 'cos i'm not sure what he plays here, so just improv
using the bend patterns shown before the etc!
(3) the last part is a rapid succession of bends and pull off's, finishing
on one finger over E,B,G at fret 10.



Here are the words:-

Sing with me. That is where i'm at.
Hoot with me. I'd get into that.
If you know where i'm at, i would get a kick from that.
Muddy face, bloody hand - Naked we dance on our clothes

CHORUS     So will you come with me? I'll take you away.

Spin with me, that is what a feel.
Open your arms. Release from within.
If you know where i'm at, i would get a kick from that.
Come the dark, light a fire - in the rain we raise our heads.

CHOURS     So will you come with me? I'll blow you away.