"EVERYBODY HURTS"
 
INTRO:  D   G   D   G   D
                     
                     G              D                      G    D
When your day is long and the night, the night is yours alone
                             G                  D           G  
When you're sure you've had enough of this life, well hang on

E(low)---3---2---0--

Em                 A  Em               A    Em             A               D  G
Don't let yourself go, cause everybody cries and everybody hurts sometimes
                              D G                            D
Sometimes everything is wrong,   now it's time to sing along
                              G                   D 
When your day is night alone             (hold on, hold on)
                              G                   D 
If you feel like letting go              (hold on)
                            G                 D             G
If you think you've had too much of this life, well hang on
 
E(low)---3---2---0--

Em              A     Em                    A       Em
Cause everybody hurts, take comfort in your friends
          A     F#                   Bm      F#     Bm 
Everybody hurts,  don't throw your hands, oh now,      
F#                 Bm    C
don't throw your hands
                         G     C                       Am     D 
If you feel like you're alone, no, no, no, you're not alone
                  G                D                            G   D
If you're on your own in this life, the days and nights are long
                              G                    D            G   
When you think you've had too much, with this life, to hang on

E(low)---3---2---0--

E              A     E           
Well everybody hurts, sometimes 
          A     E              A     NC         D    G
Everybody cries, and everybody hurts, sometimes
              D     G                    D        G        D
But everybody hurts sometimes so hold on, hold on, hold on, 
        G        D        G        D        G
Hold on, hold on, hold on, hold on, hold on,
          D       G   D   G
Everybody hurts
D                 G   D   G   D   G
You are not alone


Picking patten for the chords:
                D                               G
E----------2-----------2-------------3-----------3----------------------------
B--------3---3-------3---3---------3---3-------3---3--------------------------
G------2-------2---2-------2-----0-------0---0--------------------------------
D----0-----------0------------------------------------------------------------
A-----------------------------------------------------------------------------
E------------------------------3-----------3----------------------------------

(Note: the chords below may be picked or strummed)
     A                         E
E----------0-----------0-------------0-----------0----------------------------
B--------2---2-------2---2---------0---0-------0---0--------------------------
G------2-------2---2-------2-----1-------1---1--------------------------------
D----2-----------2------------------------------------------------------------
A------------------------------2-----------2----------------------------------
E-----------------------------------------------------------------------------

D4:  E-0-----0-----0-----0--
     B---3-----3-----3------
     G-----0-----0-----0----