"MAN ON THE MOON"

Dadd4/add2      x54030

  C                                   Dadd4/add2
|-0-------0---0-------0---0---0-|-0-------0---0-------0---0---0-|
|-1-------1---1-------1---1---1-|-1-/-3---3---3-------3---3---3-|
|-0-------0---0-------0---0---0-|-0-------0---0-------0---0---0-|
|-2-------2---2-------2---2---2-|-2-/-4---4---4-------4---4---4-|
|-3-------3---3-------3---3---3-|-3-/-5---5---5-------5---5---5-|
|-------------------------------|-------------------------------|

      C
|-0-------0---0-------0---0---0-|-0-------0---0-------0---0---0-|
|-3-\-1---1---1-------1---1---1-|-1-------1---1-------1---1---1-|
|-0-------0---0-------0---0---0-|-0-------0---0-------0---0---0-|
|-4-\-2---2---2-------2---2---2-|-2-------2---2-------2---2---2-|
|-5-\-3---3---3-------3---3---3-|-3-------3---3-------3---3---3-|
|-------------------------------|-------------------------------|

Repeat 4 measures.

VERSE: 

C                       Dadd4/add2    C
Mott the Hoople and the game of Life, yeah, yeah, yeah, yeah
C                   Dadd4/add2       C
Andy Kaufman in the wrestling match, yeah, yeah, yeah, yeah
C             Dadd4/add2           C
Monopoly, 21, checkers, and chess, yeah, yeah, yeah, yeah
C                     Dadd4/add2      C
Mr. Fred Blasy, and a breakfast mess, yeah, yeah, yeah, yeah
C                   Dadd4/add2       C
Let's play Twister, let's play Risk, yeah, yeah, yeah, yeah
C                             Dadd4/add2     C
I'll see you in heaven if you make the list, yeah, yeah, yeah, yeah


PRE-CHORUS:

Am                          G         Am                            G
Now Andy did you hear about this one, tell me are you locked in the punch?
Am                      G          C     D
Andy are you goofing on Elvis, hey baby, are we losing touch?
    
CHORUS:

G       Am     C(III)    Bm            G   Am          D
If you believe they put a man on the moon, (man on the moon)
G       Am       C(III)   Bm               Am
If you believe there's nothing up their sleeve and nothing is cruel


VERSE:

C                         Dadd4/add2     C
Moses went walking with a staff of wood, yeah, yeah, yeah, yeah
C                        Dadd4/add2  C
Newton got beaned by the apple good, yeah, yeah, yeah, yeah
C                         Dadd4/add2    C
Egypt was troubled by the horrible asp, yeah, yeah, yeah, yeah
C                          Dadd4/add2   C
Mr. Charles Darwin had the gall to ask, yeah, yeah, yeah, yeah

PRE-CHORUS:

Am                          G         Am                            G
Now Andy did you hear about this one, tell me are you locked in the punch?
Am                      G          C     D
Andy are you goofing on Elvis, hey baby, are we losing touch?
    
CHORUS:

G       Am     C(III)    Bm            G   Am          D
If you believe they put a man on the moon, (man on the moon)
G       Am       C(III)   Bm               Am
If you believe there's nothing up their sleeve and nothing is cruel


GUITAR SOLO:

Em   D   Em   D
Em   D   D

Solo (approximation)

------12---|-----------|------12---|-----------|------12---|--------
12-12----12|-----------|12-12----12|-----------|12-12----12|--------
-----------|---11-12-11|-----------|---11-12-11|-----------|---11-12
-----------|-----------|-----------|-----------|-----------|--------
-----------|12---------|-----------|12---------|-----------|12------
-----------|-----------|-----------|-----------|-----------|--------


VERSE:

C                            Dadd4/add2      C
Here's a little agit for the never believer, yeah, yeah, yeah, yeah
C                             Dadd4/add2   C
Here's a little ghost for the offering,    yeah, yeah, yeah, yeah
C                   Dadd4/add2              C
Here's a truck stop instead of St. Peter's, yeah, yeah, yeah, yeah
C                       Dadd4/add2    C
Mr. andy Kaufman's gone wrestling,    yeah, yeah, yeah, yeah


PRE-CHORUS:

Am                          G         Am                            G
Now Andy did you hear about this one, tell me are you locked in the punch?
Am                      G          C     D
Andy are you goofing on Elvis, hey baby, are we losing touch?
    
CHORUS:

G       Am     C(III)    Bm            G   Am          D
If you believe they put a man on the moon, (man on the moon)
G       Am       C(III)   Bm               Am
If you believe there's nothing up their sleeve and nothing is cruel


< GUITAR SOLO >


CHORUS: Play 3 times.

Em