The Rembrandts - I'll Be There For You

Intro
E|-----------------------|-----------------------|
B|-----------------------|-----------------------|
G|------6----6--4--2--0--|----0----2S--4----2----|
D|-----------------------|-----------------------|
A|-0---------------------|-----------------------|
E|-----------------------|-----------------------|
 Bass and drums in on 3rd time

Verse
A                                         G
So no one told you life was gonna be this way
A                                                 C#m
Your job's a joke, you're broke, your love life's D.O.A.

Bridge
G                Bm              A plus lead
----------------|---------------|---------------|-----------------------|
----------------|---------------|---------------|-----------------------|
----------------|---------------|---------------|-------2--------2------|
----------------|---------------|---------------|----2--------2---------|
----------------|---------------|---------0--2--|-4--------2--------0---|
----------------|---------------|---------------|-----------------------|
It's like you're always stuck in second gear
        G                D                    E
When it hasn't been your day, your week, your month, or even your year

Chorus
     A       D         E plus lead
------------|---------|---------0----0--0--0----0--|----0--0--0--0--0--0---|
------------|---------|-------3s5----5--3--0--3s5--|----5--5--5--5--3--0---|
------------|---------|----------------------------|-----------------------|
------------|---------|----------------------------|-----------------------|
------------|---------|----------------------------|-----------------------|
------------|---------|----------------------------|-----------------------|
But, I'll be there for you (When the rain starts to pour)
A       D         E plus lead
I'll be there for you (Like I've been there before)
A       D         E
I'll be there for you
                            G
---------------------------|-------------------------|----------------------|
---------------------------|-------------------------|----------------------|
---------------------------|-----2s4----4--2--2--4b--|----4----2----2--0----|
---------------------------|-------0----0--0--0--0---|----0----0----0--0----|
---------------------------|-------------------------|----------------------|
---------------------------|-------------------------|----------------------|
('Cause you're there for me too)

Verse
You're still in bed at 10 and work began at 8
You burned your breakfast so far, things are going great
Your mother warned you there'd be days like these
But she didn't tell you when the world has brought you down to your knees

Chorus
And, I'll be there for you (When the rain starts to pour)
I'll be there for you (Like I've been there before)
I'll be there for you ('Cause you're there for me too)

  A
---------------------|--------------------------|
---------------------|--------------------------|
--2------------------|--------2--------2-----2--|
--2------------------|-----2--------2-----2-----|
--0------------0--2--|--4--------5--------------|
---------------------|--------------------------|

Middle
D
No one could ever know me
D
No one could ever see me
F#m
Sometime the only one who knows what its like to be me
Bm                            Bm/A
Someone to face the day with, make it through all the mess with
                                                               Solo starts here
G            D                  E          D         E         F#m  D  E
Someone I'll always laugh with, even at my worst I'm best with you

Solo
  F#m               D                   E
|-----------------|------------0----0-|--------------------|-----0-0-0-0-0-0-|
|-----------------|-------------------|--------------------|-----------------|
|-6-6-6-6-6-6-6-6-|-6\---------2----4-|----4----4~---------|-----4-4-4-4-4---|
|-----------------|------4-4----------|--------------------|-----------------|
|-----------------|-------------------|--------------------|-----------------|
|-----------------|-------------------|--------------------|-----------------|

 A                   D                    E
-------------------|---------0----------|---0---------0-0-0-|----0--------------|
-------------------|--------------------|-------------------|-------------------|
-4br---------------|-------4s6------4---|------4-4-2s-1-2-1-|-------------------|
-----------2-------|-4------------------|-------------------|----2--------------|
-------------------|--------------------|-------------------|--------2-2---2s-4-|
-------------------|--------------------|-------------------|-------------------|

 F#m               D                    E
-----------------|--------------------|-------------------|-------------------|
-----------------|--------------------|-------------------|-------------------|
-----------------|--------------------|-------------------|-------------------|
-----------------|--------------------|------------/7---7-|-7-6---6-----7s-9--|
-4-4-4-4-4-4-4-4-|-4----------0---2s4-|----2---2----------|-------------------|
-----------------|-----2-2------------|-------------------|-------------------|

 A                 D                  E
-----------------|------------------|----0-----0-0-----|-0-0-0-0------------|
-----------------|----------10------|----0-----0-0---0-|-0-0-0-0------------|
-------9---------|----7------7------|-4----4s6-----7---|-9-------11---14s---|
-7-----------7---|------------------|------------------|--------------------|
-----------------|------------------|------------------|--------------------|
-----------------|------------------|------------------|--------------------|

Bridge
G                Bm              A
It's like you're always stuck in second gear
        G                D                    E
When it hasn't been your day, your week, your month, or even your year

Chorus

Chorus
I'll be there for you
I'll be there for you
A       D         E                               G
I'll be there for you ('Cause you're there for me too)

Ending played during last G chord
 G                                           A
------------------------|-----------------------|
------------------------|--------------------2--|
------4----4--2--4b--5--|-------4----2--4----2--|
------------------------|--------------------2--|
------------------------|--------------------0--|
-3----------------------|-----------------------|

http://www.sparkystabs.co.uk