Ready to Go by Republica

Intro:
------
Clean Acoustic Guitar:

    Dsus4          A7sus4       G/Bb         Cadd9
e:--3--3--3--3-3---3--3--3--3-|-3--3--3--3---3--3--3--3-|
B:--3--3--3--3-3---3--3--3--3-|-3--3--3--3---3--3--3--3-|
G:--2--2--2--2-2---0--0--0--0-|-0--0--0--0---0--0--0--0-|
D:--0--0--0--0-0---2--2--2--2-|-0--0--0--0---2--2--2--2-|
A:--0--0--0--0-0---0--0--0--0-|-1--1--1--1---3--3--3--3-|
D:----------------------------|-------------------------|
                                           
    Distorted Guitar
    D
e:----------------------------------------|
B:----------------------------------------|
G:----------------------------------------|
D:--0--0--3--0--0--10--0--0--3--0--0--10--| x2
A:--0--0--3--0--0--10--0--0--3--0--0--10--|
D:--0--0--3--0--0--10--0--0--3--0--0--10--|
             PALM MUTING!

Verse 1:
--------
    Bass only for first part (you can play this with the
guitar...)

    C  D  D  D   D
G:----------------------------------|
D:----------------------------------|
A:----------------------------------|
D:--10-12-12--12-12-10-12-12-12-12--|
    You're weird, 			in tears
	Too near or too far away...

Distorted Guitar:

e:------------p--------------|-------------------------------|
B:------------a--------------|-------------------------------|
G:------------u--------------|-------------------------------|
D:--0--0--3-0-s-0--0--3-0----|-0--0--3--0--0--10-0--0--3--0--|
A:--0--0--3-0-e-0--0--3-0----|-0--0--3--0--0--10-0--0--3--0--|
D:--0--0--3-0---0--0--3-0----|-0--0--3--0--0--10-0--0--3--0--|
	    He said, so bad,  went home stayed in bed all day
                               

Bridge 1:
---------
      D	     Bb	   C	 A
e:----------------------------|
B:----------------------------|
G:----2------10----12----9----|
D:----0------8-----10----7----|
A:----0------8-----10----7----|
D:----0------8-----10----7----|

D	    Bb		C		 A
  Two shots,  Fishdogs,    always wonder where you are


Chorus:
-------
    D	    A	    Bb	    C
e:--2------------------------------|
B:--3------------------------------|
G:--2-------9-------10------12-----|
D:--0-------7-------8-------10-----|
A:--0-------7-------8-------10-----|
D:--0-------7-------8-------10-----|

D		  A
 It's a pass, I'm back,
			 Bb
yeah I'm standing on the roof tops shouting out
C
Baby I'm ready to goooooo,
D     A			    Bb
  I'm back and I'm ready to gooo,
	 C
From the rooftops shout it out, (drums) shout it out....

Break:
------
Play distorted bit of intro...x2

Verse 2:
--------

You seem, to diss, one week is another word

Big mouth, drop out, you'll get what you deserve

Bridge:
-------
D		Bb	C		    A
 You're strange,  insane, one thing you can never change

Play chorus x2

Solo-ish:
---------
Play acoustic intro x2,

Second time double accoustic with following distorted guitar:
"Ready to gooo"

     Strum the B and G strings ETREMELY FAST
e:--------------------------------------------|
B:---3~~~-----10-----11-----13----------------|
G:---2~~~-----9------10-----12----------------|
D:---0--------7------8------10----------------|
A:---0--------7------8------10----------------|
D:---0--------7------8------10----------------|

Play distorted intro x2, second time with following noise:
                    
    Noise:          

e:------------------|
B:--15---15-15-15---|
G:--17~--17~17~17~--| <- bend the G sting about half a step...
D:------------------|
A:------------------|
D:------------------|

Bridge 3: (same chords as bridge 1)
--------
D	Bb	   C		      A
  Abused, confused, always the one to hold you hold ya hold ya


Play chorus...x2

Continuing with "baby I'm ready to go", with the chords from the chorus
and the solo's "noise".

Finish on:
----------
N.C:
Baby I'm ready to gooooo.